Oops, an error
Loading. Please wait.

Prayer Of The Refugee Bass Tab

version 3
version 3
4,083 views 1 this week
1 commentread comment
1 2 3 4 5
1 last vote to show rating
add to favorites
launch autoscroll
font size
0
reset
guitar tuner
Autoscroll
slow
fast
+/-
esc
set tempo
stop
Help us to improve Ultimate-Guitar.com Take our survey!
×
Author
Difficulty
Tuning
intermediate
D# G# C# F# A# D#
Tabbed by Jamie Harris
Tuning: 1/2 step down (Eb, Ab, Db, Gb)

Intro
-------|
-------|
-------|
-9/12~-

Verse Part 1
------------------------------------------------------------|
------------------------------------------------------------|
----------------3-3--3-3-3-3-35-5--5-5-5-5-5----------------|
-0-0--0-0-0-0--0----------------------------5-5--5-5-3--2-0-|

-----------------------------------------------------------|
-----------------------------------------------------------|
----------------3-3--3-3-3-3--3----------------------------|
-0-0--0-0-0-0--0---------------3-3--3-3-3-3-30-0--0-0-0-0--|

Part 2
---------------------------------------------|
---------------------------------------------|
-----------3--3-3--3-5--5-5--5---------------|
-0--0-0--0---------------------5--5-5-3--2-0-|

----------------------------------|
----------------------------------|
-----------3--3-3--3--------------|
-0--0-0--0-----------3--3-3--3-0--|

Chorus - I'm sure this is what he plays, but it could be an octave down
-------------------------------------------------------------------------|
---------------------------------------------12-9-10-9-10101010----------|
-7777777-9-1010101010101010-12121212----------------------------10-9-7-9-|
------------------------------------10101010-----------------------------| x2
Second time miss out the last little fill                       ^^^^^^^^^

Verse 2 same as Verse 1

Chorus again

Bridge
---------------------------------|
---------------------------------|
---------------------------------|
-5-5-5-5-5-5-5-5-3-3-3-3-3-3-3-3-| x 3

---------------------------------|
---------------------------------|
---------------------------------|
-1-1-1-1-1-1-1-1-0-0-0-0-0-0-0-0-| x 1

Palm mute all notes except the first of every group

Solo
-----------------|
-----------------|
-3-3-3-3---------|
---------3-3-2-2-|

-----------------------------------------------------------------|
-----------------------------------------------------------------|
---------------------------------5-5-5-5-5-5-5-5-3-3-3-3-3-3-3-3-|
-0-0-0-0-0-0-0-0-3-3-3-3-3-3-3-3---------------------------------| x 2

Chorus again

Outro
----------------------------------------------------|
----------------------------------------------------|
----------------------------------------------------|
-0--0-0-0--0-0-0--0-0-0--0-3-3--3-3-3--3-3-3--3-3-3-|

--------------------------------------------------------|
--------------------------------------------------------|
---5-5--5-5-5--5-5-5--5-5-5--5-3-3--3-3-3--3-3-3--3-3-3-|
-3------------------------------------------------------| x 2

End on
----
----
----
-0~-

Hope this is helpfull. Please rate :)
Suggest correction
Give kudos to tab author, rate the tab!
1 2 3 4 5
comments
print report bad tab
1 comment total.
0 reply
Claymore65 709 Nov 15, 2008 05:28 AM

sorry guys, should be 7/12 at the start

guest
You may want to rate the tab now too:
select rating
Wanna post a correction for this tab? Suggest correction