Oops, an error
Loading. Please wait.

Prayer Of The Refugee Bass Tab

version 4
version 4
19,724 views 9 this week
2 commentsread comments
1 2 3 4 5
x 13
add to favorites
launch autoscroll
font size
0
reset
guitar tuner
Autoscroll
slow
fast
+/-
esc
set tempo
stop
Help us to improve Ultimate-Guitar.com Take our survey!
×
Author
Song: Prayer Of The Refugee
Artist: Rise Against
Album: The Sufferer & The Witness

This song has very interesting rhythm. Before the choruses everything stops and the
song speeds up considerably, then after most choruses the note is held, and the song returns
its original tempo. The bass part in itself, however, is quite straightforward. The 
are arranged according to the timing of the song and Courier New, size 9, is the font
use to print this tab. Enjoy!

INTRO   (0:02)

Gb|----------------|----------------|----------------|
Db|----------------|----------------|----------------|
Ab|------------2~~/|7~~~~~~~~~~~~~~~|(7)-------------|
Eb|----------------|----------------|----------------|


VERSE 1   (0:06)

Gb|----------------|----------------|----------------|----------------|
Db|----------------|----------------|----------------|----------------|
Ab|----------------|3-3-3-3-3-3-3-3-|5-5-5-5-5-5-5-5-|----------------|
Eb|0-0-0-0-0-0-0-0-|----------------|----------------|5-5-5-5-5-3---3-|

Gb|----------------|----------------|----------------|----------------|
Db|----------------|----------------|----------------|----------------|
Ab|----------------|3-3-3-3-3-3-3-3-|----------------|----------------|
Eb|0-0-0-0-0-0-0-0-|----------------|3-3-3-3-3-3-3-3-|0-0-0-0-0-0-0-0-|

Gb|----------------|----------------|----------------|----------------|
Db|----------------|----------------|----------------|----------------|
Ab|----------------|3-----3-3-----3-|5-----5-5-----5-|----------------|
Eb|0-----0-0-----0-|----------------|----------------|5-----5-5-0-3-2-|

Gb|----------------|----------------|----------------|----------------|
Db|----------------|----------------|----------------|----------------|
Ab|----------------|3-----3-3-----3-|----------------|----------------|
Eb|0-----0-0-----0-|----------------|3-----3-3-----3-|0---------------|


CHORUS 1   (0:31)

Gb|----------------|----------------|----------------|----------------|
Db|----------------|------------4-4-|5-5-5-5-5-5-5-5-|5-5-5-5-5-5-4-4-|
Ab|7-7-7-7-7-7-7-7-|7-7-7-7-7-7-----|----------------|----------------|
Eb|----------------|----------------|----------------|----------------|

Gb|----------------|----4-4-5-5-4-4-|----------------|----------------|
Db|7-7-7-7---------|----------------|----------------|5-5-4-4---------|
Ab|--------5-5-5-5-|5-5-------------|3-3-3-3-3-3-3-3-|--------7-7-5-5-|
Eb|----------------|----------------|----------------|----------------|

Gb|----------------|----------------|----------------|----------------|
Db|----------------|------------4-4-|5-5-5-5-5-5-5-5-|5-5-5-5-5-5-4-4-|
Ab|7-7-7-7-7-7-7-7-|7-7-7-7-7-7-----|----------------|----------------|
Eb|----------------|----------------|----------------|----------------|

Gb|----------------|----4-4-5-5-4-4-|----------------|----------------|
Db|7-7-7-7---------|----------------|----------------|--------*-------|
Ab|--------5-5-5-5-|5-5-------------|3-3-3-3-3-3-3-3-|3-3-3-3-3~~~2~~/|
Eb|----------------|----------------|----------------|----------------|

Gb|----------------|----------------|----------------|----------------|
Db|----------------|----------------|----------------|----------------|
Ab|7~~~~~~~~~~~~~~~|(7)~~~~~~~~~~~~~|(7)~~~~~~~~~~~~~|(7)-------------|
Eb|----------------|----------------|----------------|------------7\--|


VERSE 2   (0:59)

Gb|----------------|----------------|----------------|----------------|
Db|----------------|----------------|----------------|----------------|
Ab|----------------|3-3-3-3-3-3-3-3-|5-5-5-5-5-5-5-5-|----------------|
Eb|0-0-0-0-0-0-0-0-|----------------|----------------|5-5-5-5-5-3---3-|

Gb|----------------|----------------|----------------|----------------|
Db|----------------|----------------|----------------|----------------|
Ab|----------------|3-3-3-3-3-3-3-3-|----------------|------------5\--|
Eb|0-0-0-0-0-0-0-0-|----------------|3-3-3-3-3-3-3-3-|0-0-0-0-0-------|

Gb|----------------|----------------|----------------|----------------|
Db|----------------|----------------|----------------|----------------|
Ab|----------------|3-----3-3-----3-|5-----5-5-----5-|----------------|
Eb|0-----0-0-----0-|----------------|----------------|5-----5-5-0-5-3-|

Gb|----------------|----------------|----------------|----------------|
Db|----------------|----------------|----------------|----------------|
Ab|----------------|3-----3-3-----3-|----------------|----------------|
Eb|0-----0-0-----0-|----------------|3-----3-3-----3-|0---------------|


CHORUS 2   (1:24)

Gb|----------------|----------------|----------------|----------------|
Db|----------------|------------4-4-|5-5-5-5-5-5-5-5-|5-5-5-5-5-5-4-4-|
Ab|7-7-7-7-7-7-7-7-|7-7-7-7-7-7-----|----------------|----------------|
Eb|----------------|----------------|----------------|----------------|

Gb|----------------|----4-4-5-5-4-4-|----------------|----------------|
Db|7-7-7-7---------|----------------|----------------|5-5-4-4---------|
Ab|--------5-5-5-5-|5-5-------------|3-3-3-3-3-3-3-3-|--------7-7-5-5-|
Eb|----------------|----------------|----------------|----------------|

Gb|----------------|----------------|----------------|----------------|
Db|----------------|------------4-4-|5-5-5-5-5-5-5-5-|5-5-5-5-5-5-4-4-|
Ab|7-7-7-7-7-7-7-7-|7-7-7-7-7-7-----|----------------|----------------|
Eb|----------------|----------------|----------------|----------------|

Gb|----------------|----4-4-5-5-4-4-|----------------|----------------|
Db|7-7-7-7---------|----------------|----------------|----------------|
Ab|--------5-5-5-5-|5-5-------------|3-3-3-3-3-3-3-3-|3-3-3-3-3-3-3-3-|
Eb|----------------|----------------|----------------|----------------|

INTERLUDE   (1:43)

Gb|----------------|----------------|----------------|----------------|
Db|----------------|----------------|----------------|----------------|
Ab|----------------|----------------|----------------|----------------|
Eb|5---5-5-5-5-5-5-|5-5-5-5-5-5-5-5-|3---3-3-3-3-3-3-|3-3-3-3-3-3-3-3-|  x2

Gb|----------------|----------------|----------------|----------------|
Db|----------------|----------------|----------------|----------------|
Ab|----------------|----2-2-3-3-2-2-|----------------|----------------|
Eb|5---5-5-5-5-5-5-|5-5-------------|3---3-3-3-3-3-3-|3-3-3-3-3-3-3-3-|

Gb|----------------|----------------|----------------|----------------|
Db|3---------------|----------------|----------------|----------------|
Ab|----------------|----------------|----------------|----------------|
Eb|----1-1-1-1-1-1-|1-1-1-1-1-1-1-1-|0-0-0-0-0-0-0-0-|0-0-0-0-0-0-0-0-|

Gb|----------------|----------------|
Db|----------------|----------------|
Ab|3---3-3-3-3-3-3-|--------5-5-5-5-|
Eb|----------------|3---3-3---------|


GUITAR SOLO   (2:05)

Gb|----------------|----------------|----------------|----------------|
Db|----------------|----------------|----------------|----------------|
Ab|----------------|----------------|----------------|----------------|
Eb|0-0-0-0-0-0-0-0-|0-0-0-0-0-0-0-0-|3-3-3-3-3-3-3-3-|3-3-3-3-3-3-3-3-|

Gb|----------------|----------------|----------------|----------------|
Db|----------------|----------------|----------------|----------------|
Ab|5-5-5-5-5-5-5-5-|5-5-5-5-5-5-5-5-|3-3-3-3-3-3-3-3-|3-3-2-2---------|
Eb|----------------|----------------|----------------|--------5-5-3-3-|

Gb|----------------|----------------|----------------|----------------|
Db|----------------|----------------|----------------|----------------|
Ab|----------------|----------------|----------------|----------------|
Eb|0-0-0-0-0-0-0-0-|0-0-0-0-0-0-0-0-|3-3-3-3-3-3-3-3-|3-3-3-3-3-3-3-3-|

Gb|----------------|----------------|----------------|----------------|
Db|----------------|----------------|----------------|--------*-------|
Ab|5-5-5-5-5-5-5-5-|5-5-5-5-5-5-5-5-|3-3-3-3-3-3-3-3-|3-3-3-3-3~~~2~~/|
Eb|----------------|----------------|----------------|----------------|

Gb|----------------|----------------|----------------|----------------|
Db|----------------|----------------|----------------|----------------|
Ab|7~~~~~~~~~~~~~~~|(7)~~~~~~~~~~~~~|(7)-------------|7---------------|
Eb|----------------|----------------|----------------|----------------|

CHORUS 3   (2:34)  -> Play chorus 2 then continue to this:

Gb|----------------|----------------|----------------|----------------|
Db|----------------|----------------|----------------|----------------|
Ab|----------------|----------------|----------------|----------------|
Eb|0-0---0-0-0---0-|0-0---0-0-0-0-0-|3-3---3-3-3---3-|3-3---3-3-3-3-3-|

Gb|----------------|----------------|----------------|----------------|
Db|----------------|----------------|----------------|----------------|
Ab|5-5---5-5-5---5-|5-5---5-5-5-5-5-|3-3---3-3-3---3-|3-3-3-3-3-3-3-3-|
Eb|----------------|----------------|----------------|----------------|

Gb|----------------|----------------|----------------|----------------|
Db|----------------|----------------|----------------|----------------|
Ab|----------------|----------------|----------------|----------------|
Eb|0-0-0-0-0-0-0-0-|0-0-0-0-0-0-0-0-|3-3-3-3-3-3-3-3-|3-3-3-3-3-3-3-3-|

Gb|----------------|----------------|----------------|----------------|
Db|----------------|----------------|----------------|----------------|
Ab|5-5-5-5-5-5-5-5-|5-5-5-5-5-5-5-5-|3-3-3-3-3-3-3-3-|3-3-2-2---------|
Eb|----------------|----------------|----------------|--------5-5-3-3-|

Gb|----------------|
Db|----------------|
Ab|----------------|
Eb|0~~~~~~~~~~~~~~~|    -3:18


Symbol Legend:

~/   = Let note ring then slide up
~    = Let note ring
(7)  = Let note ring into next bar
*    = Fermata - pause; hold note for longer than its original value
\    = Slide down
x2   = Play this section twice

That’s it. Any questions, comments, suggestions or corrections would be appreciated.
Suggest correction
comments
print report bad tab
2 comments total.
0 reply
FBassman 1,012 Oct 16, 2009 09:55 PM

apparently this doesn't line up properly. Just cut amd paste it to a word document and change it to a courier-type font. That should fix it.

0 reply
micah3639 77 May 15, 2014 08:58 PM

This is by far the best bass tab for this song I have found! Great job!

guest
You may want to rate the tab now too:
select rating
Wanna post a correction for this tab? Suggest correction