Oops, an error
Loading. Please wait.

Prayer Of The Refugee Tab

version 5
9,927 views 9 this week
3 commentsread comments
1 2 3 4 5
accurate
x 4
add to favorites
launch autoscroll
font size
0
reset
how to read this tab
guitar tuner
Autoscroll
slow
fast
+/-
esc
set tempo
stop
Help us to improve Ultimate-Guitar.com Take our survey!
×
Author
Tuning
D A D G B E
Title: Prayer of the Refugee
Artist: Rise Against

Tuning: Drop D - DADGBE

x = mute
~ = let ring
PM = palm mute
/ = slide up
\ = slide down

The tabs I write are written to be played with one guitar, so normally i don't put two
parts into my tabs and i only write the more prominent one. In this song though, in
parts (the part where i wrote both rhythm and lead) both guitars are about equally 
and therefore i wrote in both to let you choose which one you'd want to play. The rest of
second guitar parts is pretty obvious too if you really want to know them, and if u 
figure it out, you can always see version 2 of this tab, in which the whole tab is done for 
guitars


Intro:
|----------------------------------------|
|--7--6-6--7-7--6-6--7-7--6-6--7-7--6-6--|
|--8--8-8--8-8--8-8--8-8--8-8--8-8--8-8--|
|----------------------------------------|
|----------------------------------------|
|----------------------------------------|

|------------------------------------------|
|--7-7--6-6--7-7--6-6--7-7--6-6--7-7--6-6--|
|--8-8--8-8--8-8--8-8--8-8--8-8--8-8--8-8--|
|------------------------------------------|
|------------------------------------------|
|------------------------------------------|

|---------------------------------------------|
|--7-7--6-6--7-7--6-6--7-7--6-6---------------|
|--8-8--8-8--8-8--8-8--8-8--8-8--8-8--8-8888--|
|--------------------------------8-8--8-8888--|
|---------------------------------------------|
|---------------------------------------------|


Pre-Chorus:
|------------------------------------------|
|------------------------------------------|
|------------------------------------------|
|-----------4--4-4--4-6--6-6--6------------|
|-1--1-1--1-2--2-2--2-4--4-4--4-6--6-6--6--|
|-1--1-1--1---------------------6--6-6--6--|

|-----------------------------------|
|-----------------------------------|
|-----------------------------------|
|------------4--4-4--4--------------|
|--1--1-1--1-2--2-2--2-4--4-4--4-1--|
|--1--1-1--1-----------4--4-4--4-1--|


Chorus:
(lead)
|----------------------------|
|----------------------------|
|--8-8-6/8-6/8-8-6/10101010--| x3
|--x-x-x/x-x/x-x-x/-x-x-x-x--|
|--6-6-4/6-4/6-6-4/-8-8-8-8--|
|----------------------------|

|---------------------------------------------------|
|---------------------------------------------------|
|--13-13-13-13-11-11-11-11-10-10-10-10-11-11-11-11--|
|---x--x--x--x--x--x--x--x--x--x--x--x--x--x--x--x--|
|--11-11-11-11--9--9--9--9--8--8--8--8--9--9--9--9--|
|---------------------------------------------------|

|----------------------------|
|----------------------------|
|--8-8-6/8-6/8-8-6/10101010--| x3
|--x-x-x/x-x/x-x-x/-x-x-x-x--|
|--6-6-4/6-4/6-6-4/-8-8-8-8--|
|----------------------------|

|-------------------------------------------|
|-------------------------------------------|
|--13-13-13-13-11-11-11-11-10-10-10-10-11~--|
|---x--x--x--x--x--x--x--x--x--x--x--x--x~--|
|--11-11-11-11--9--9--9--9--8--8--8--8--9~--|
|-------------------------------------------|

(rhythm)
|----------------------------------------------------------------------|
|----------------------------------------------------------------------|
|-----------------------------------6666666666666666-4444444444444444--|
|-1111111111111111-4444444444444444-6666666666666666-4444444444444444--|
|-1111111111111111-4444444444444444-4444444444444444-2222222222222222--|
|-1111111111111111-4444444444444444------------------------------------|

|-------------------------------------------------------------------------|
|-------------------------------------------------------------------------|
|-----------------------------------6666666666666666-4444444444444444-4~--|
|-1111111111111111-4444444444444444-6666666666666666-4444444444444444-4~--|
|-1111111111111111-4444444444444444-4444444444444444-2222222222222222-2~--|
|-1111111111111111-4444444444444444---------------------------------------|


Pre-Verse:
|----------------------------------------|
|--7--6-6--7-7--6-6--7-7--6-6--7-7--6-6--|
|--8--8-8--8-8--8-8--8-8--8-8--8-8--8-8--|
|----------------------------------------|
|----------------------------------------|
|----------------------------------------|


Verse:
(lead)
|-----------------------------------|
|-----------------------------------|
|--6/8~-----11-13-15\8~------4-6-3--|
|--x/x~------x--x--x\x~------x-x-x--|
|--4/6~------9-11-13\6~------2-4-1--|
|-----------------------------------|

(rhythm)
|------------------------------------------|
|--7-7--6-6--7-7--6-6--7-7--6-6--7-7--6-6--|
|--8-8--8-8--8-8--8-8--8-8--8-8--8-8--8-8--|
|------------------------------------------|
|------------------------------------------|
|------------------------------------------|

|---------------------------------------------|
|--7-7--6-6--7-7--6-6--7-7--6-6---------------|
|--8-8--8-8--8-8--8-8--8-8--8-8--8-8--8-8888--|
|--------------------------------8-8--8-8888--|
|---------------------------------------------|
|---------------------------------------------|


Pre-Chorus:
|------------------------------------------|
|------------------------------------------|
|------------------------------------------|
|-----------4--4-4--4-6--6-6--6------------|
|-1--1-1--1-2--2-2--2-4--4-4--4-6--6-6--6--|
|-1--1-1--1---------------------6--6-6--6--|

|-----------------------------------|
|-----------------------------------|
|-----------------------------------|
|------------4--4-4--4--------------|
|--1--1-1--1-2--2-2--2-4--4-4--4-1--|
|--1--1-1--1-----------4--4-4--4-1--|


Chorus:
(lead)
|----------------------------|
|----------------------------|
|--8-8-6/8-6/8-8-6/10101010--| x3
|--x-x-x/x-x/x-x-x/-x-x-x-x--|
|--6-6-4/6-4/6-6-4/-8-8-8-8--|
|----------------------------|

|---------------------------------------------------|
|---------------------------------------------------|
|--13-13-13-13-11-11-11-11-10-10-10-10-11-11-11-11--|
|---x--x--x--x--x--x--x--x--x--x--x--x--x--x--x--x--|
|--11-11-11-11--9--9--9--9--8--8--8--8--9--9--9--9--|
|---------------------------------------------------|

|----------------------------|
|----------------------------|
|--8-8-6/8-6/8-8-6/10101010--| x3
|--x-x-x/x-x/x-x-x/-x-x-x-x--|
|--6-6-4/6-4/6-6-4/-8-8-8-8--|
|----------------------------|

|-------------------------------------------|
|-------------------------------------------|
|--13-13-13-13-11-11-11-11-10-10-10-10-11~--|
|---x--x--x--x--x--x--x--x--x--x--x--x--x~--|
|--11-11-11-11--9--9--9--9--8--8--8--8--9~--|
|-------------------------------------------|

(rhythm)
|----------------------------------------------------------------------|
|----------------------------------------------------------------------|
|-----------------------------------6666666666666666-4444444444444444--|
|-1111111111111111-4444444444444444-6666666666666666-4444444444444444--|
|-1111111111111111-4444444444444444-4444444444444444-2222222222222222--|
|-1111111111111111-4444444444444444------------------------------------|

|-------------------------------------------------------------------------|
|-------------------------------------------------------------------------|
|-----------------------------------6666666666666666-4444444444444444-4~--|
|-1111111111111111-4444444444444444-6666666666666666-4444444444444444-4~--|
|-1111111111111111-4444444444444444-4444444444444444-2222222222222222-2~--|
|-1111111111111111-4444444444444444---------------------------------------|


Bridge:
|-------------------------------------------|
|-------------------------------------------|
|-------------------------------------------| x3
|--6-66666666666666-4-4444444444-4-44-4-----|
|--6-66666666666666-4-4444444444-4-44-4-----|
|--6-66666666666666-4-4444444444-4-44-4-----|
    |------PM------| |----PM----| |PM-------|

|---------------------------------------|
|---------------------------------------|
|---------------------------------------|
|--2-22222222222222-1-11111111111111----|
|--2-22222222222222-1-11111111111111----|
|--2-22222222222222-1-11111111111111----|
    |------PM------| |------PM----------|


Pre Solo:
|---------------|
|---------------|
|-8-888888-11-6-|
|-x-xxxxxx--x-x-|
|-6-666666--9-4-|
|---------------|


Solo:
|-----------------------------|
|-----------------------------|
|-8-888888-10101010-11111111--| x3
|-x-xxxxxx--x-x-x-x--x-x-x-x--|
|-6-666666--8-8-8-8--9-9-9-9--|
|-----------------------------|

|----------------------|
|----------------------|
|--8-88888888-6666666--|
|--x-xxxxxxxx-xxxxxxx--|
|--6-66666666-4444444--|
|----------------------|

|-------------------------------------------------------------------------------|
|-------------------------------------------------------------------------------|
|--15--11--15-16-15-13-15--11--15-16-15-13-13--13--13-13-13-11-15--15--15--15~--|
|---x---x---x--x--x--x--x---x---x--x--x--x--x---x---x--x--x--x--x---x---x---x~--|
|--13---9--13-14-13-11-13---9--13-14-13-11-11--11--11-11-11--9-13--13--13--13~--|
|-------------------------------------------------------------------------------|


Fill:
|----------------------------------|
|-7--6-6--7-7--6-6--7-7--6-6-------|
|-8--8-8--8-8--8-8--8-8--8-8--8----|
|-----------------------------8----|
|-------------------------------1--|
|-------------------------------1--|


Chorus:
(lead)
|----------------------------|
|----------------------------|
|--8-8-6/8-6/8-8-6/10101010--| x3
|--x-x-x/x-x/x-x-x/-x-x-x-x--|
|--6-6-4/6-4/6-6-4/-8-8-8-8--|
|----------------------------|

|---------------------------------------------------|
|---------------------------------------------------|
|--13-13-13-13-11-11-11-11-10-10-10-10-11-11-11-11--|
|---x--x--x--x--x--x--x--x--x--x--x--x--x--x--x--x--|
|--11-11-11-11--9--9--9--9--8--8--8--8--9--9--9--9--|
|---------------------------------------------------|

|----------------------------|
|----------------------------|
|--8-8-6/8-6/8-8-6/10101010--| x3
|--x-x-x/x-x/x-x-x/-x-x-x-x--|
|--6-6-4/6-4/6-6-4/-8-8-8-8--|
|----------------------------|

|-------------------------------------------|
|-------------------------------------------|
|--13-13-13-13-11-11-11-11-10-10-10-10-11~--|
|---x--x--x--x--x--x--x--x--x--x--x--x--x~--|
|--11-11-11-11--9--9--9--9--8--8--8--8--9~--|
|-------------------------------------------|

(rhythm)
|----------------------------------------------------------------------|
|----------------------------------------------------------------------|
|-----------------------------------6666666666666666-4444444444444444--|
|-1111111111111111-4444444444444444-6666666666666666-4444444444444444--|
|-1111111111111111-4444444444444444-4444444444444444-2222222222222222--|
|-1111111111111111-4444444444444444------------------------------------|

|-------------------------------------------------------------------------|
|-------------------------------------------------------------------------|
|-----------------------------------6666666666666666-4444444444444444-4~--|
|-1111111111111111-4444444444444444-6666666666666666-4444444444444444-4~--|
|-1111111111111111-4444444444444444-4444444444444444-2222222222222222-2~--|
|-1111111111111111-4444444444444444---------------------------------------|


Outro:
(lead)
|---------------------------------------------------------------------|
|---------------------------------------------------------------------|
|---------------------------------------------------------------------|
|-----------------------------------66-666-666-66666-44-444-444-44444-|
|-11-111-111-11111-44-444-444-44444-44-444-444-44444-22-222-222-22222-|
|-11-111-111-11111-44-444-444-44444-----------------------------------|

|----------------------------|
|----------------------------|
|--8-8-6/8-6/8-8-6/10101010--| x3
|--x-x-x/x-x/x-x-x/-x-x-x-x--|
|--6-6-4/6-4/6-6-4/-8-8-8-8--|
|----------------------------|

|-------------------------------------------------------------|
|-------------------------------------------------------------|
|--13-13-13-13-11-11-11-11-10-10-10-10-11-11-11-11-11~----8~--|
|---x--x--x--x--x--x--x--x--x--x--x--x--x--x--x--x--x~----x~--|
|--11-11-11-11--9--9--9--9--8--8--8--8--9--9--9--9--9~----6~--|
|-------------------------------------------------------------|

(rhythm)
|----------------------------------------------------------|
|----------------------------------------------------------|
|----------------------------------------------------------|
|-----------------------------66-666-66-666-44-444-44-444--|
|-11-111-11-111-44-444-44-444-44-444-44-444-22-222-22-222--|
|-11-111-11-111-44-444-44-444------------------------------|

|-------------------------------------------------------------------------|
|-------------------------------------------------------------------------|
|-----------------------------------6666666666666666-4444444444444444-----|
|-1111111111111111-4444444444444444-6666666666666666-4444444444444444-1~--|
|-1111111111111111-4444444444444444-4444444444444444-2222222222222222-1~--|
|-1111111111111111-4444444444444444-----------------------------------1~--|
Suggest correction
comments
print report bad tab
3 comments total.
0 reply
Ridgeway15 10 wrote on October 22 2008, 08:05 pm

Really good accept i think the lead chorus is
4/6 6 4/6 6 4/6 11 9 9
X X X X X X X X X X X
6/8 8 6/8 8 6/8 13 11 11
but other than that it was awsome

0 reply
Ridgeway15 10 wrote on October 22 2008, 08:07 pm

9 9
X X
11 11
is the last part sorry

0 reply
theanthemfan 10 wrote on October 13 2009, 12:06 am

i think your chorus is wrong it goes like that when i play it
-------------------------
8/6\8--8-8-8-8/6\11/10-10
x-x-x--x-x-x-x-x--x--x--x
6/4\6--6-6-6-6/4\-9/-8--8
-------------------------

guest
You may want to rate the tab now too:
select rating
Wanna post a correction for this tab? Suggest correction