Oops, an error
Loading. Please wait.

Prayer Of The Refugee Tab

version 7
20,281 views 21 this week
6 commentsread comments
1 2 3 4 5
excellent!
x 14
add to favorites
launch autoscroll
font size
0
reset
how to read this tab
guitar tuner
Autoscroll
slow
fast
+/-
esc
set tempo
stop
Help us to improve Ultimate-Guitar.com Take our survey!
×
Artist: Rise Against

Song: Prayer of the refugee

Album: The sufferer and the witness

Tuning: Eb (1/2 step down)

No Fuckin Drop D!!!

This is the correct way to play it!

------------------------------------------------------------------------- 
Intro:

Guitar 1: Clean w/ little distortion

Eb|-------------|------------|------------|------------|
Bb|---8---7-7---|8-8---7-7---|8-8---7-7---|8-8---7-7---|
Gb|---9---9-9---|9-9---9-9---|9-9---9-9---|9-9---9-9---|
Db|-------------|------------|------------|------------|
Ab|-------------|------------|------------|------------|
Eb|-------------|------------|------------|------------|

---------------------------------------------------------------------
Verse 1:

Guitar 1: Clean w/ little distortion

Eb|-------------|    |-------------|
Bb|---8-8---7-7-|    |-------------|
Gb|---9-9---9-9-| x7 |9-9---9-9-9-9|
Db|-------------|    |9-9---9-9-9-9|
Ab|-------------|    |-------------|
Eb|-------------|    |-------------|

Repeat Verse Twice

[Play the first part twice then end with the last part,
then play it all over again]

Guitar 2: Distortion

Eb|-------------|------------|------------|-------------|
Bb|-------------|------------|------------|-------------|
Gb|-------------|--5---5-5---|5-7---7-7---|7------------|
Db|---2---2-2---|2-5---5-5---|5-7---7-7---|7-7---7-7---7|
Ab|---2---2-2---|2-3---3-3---|3-5---5-5---|5-7---7-7---7|
Eb|---0---0-0---|0-----------|------------|--5---5-5---5|

Eb|-------------|------------|------------|----|
Bb|-------------|------------|------------|----|
Gb|-------------|--5---5-5---|5-----------|----|
Db|---2---2-2---|2-5---5-5---|5-5---5-5---|5-2-|
Ab|---2---2-2---|2-3---3-3---|3-5---5-5---|5-2-|
Eb|---0---0-0---|0-----------|--3---3-3---|3-0-|

-----------------------------------------------------------------------

Chorus 1:

Guitar 1: Distortion

Eb|-------------|--------------|--------------|------------| \
Bb|-------------|--------------|--------------|------------| |
Gb|-------------|--------------|--------------|------------| |
Db|---2--2-2-2--|2-2-2--2-2-2--|2-2-5--5-5-5--|5-5-5--5-5-5| |
Ab|---2--2-2-2--|2-2-2--2-2-2--|2-2-5--5-5-5--|5-5-5--5-5-5| |
Eb|---0--0-0-0--|0-0-0--0-0-0--|0-0-3--3-3-3--|3-3-3--3-3-3| |
                                                             |
Eb|-----------------|--------------|--------------|          |
Bb|-----------------|--------------|--------------|          |
Gb|-------7--7-7-7--|7-7-7--7-7-7--|7-7-5--5-5-5--|          | x2
Db|---5-5-7--7-7-7--|7-7-7--7-7-7--|7-7-5--5-5-5--|          |
Ab|---5-5-5--5-5-5--|5-5-5--5-5-5--|5-5-3--3-3-3--|          |
Eb|---3-3-----------|--------------|--------------|          |
                                                             |
Eb|-----------------|----|                                   |
Bb|-----------------|----|                                   |
Gb|---5-5-5--5-5-5--|5-5-|                                   |
Db|---5-5-5--5-5-5--|5-5-|                                   |
Ab|---3-3-3--3-3-3--|3-3-|                                   |
Eb|-----------------|----|                                   /


Guitar 2: Distortion

Eb|-----------------|------------|    |-----------------------|
Bb|-----------------|------------|    |-----------------------|
Gb|---9\7/9--9-9-9--|9\7/12\11-11| x3 |14-14-14-14-12-12-12-12|
Db|---x-x-x--x-x-x--|x-x--x--x--x|    |-x--x--x--x--x--x--x--x|
Ab|---7\5/7--7-7-7--|7\5/10\-9--9|    |12-12-12-12-10-10-10-10|
Eb|-----------------|------------|    |-----------------------|

Eb|o-------------------------|
Bb|o-------------------------|
Gb|o--11-11-11-11-12-12-12-12|
Db|o---x--x--x--x--x--x--x--x| 
Ab|o---9--9--9--9-10-10-10-10| 
Eb|o-------------------------| 

End Without the three final Gb(Or G in Standard tuning)octave chords (That's the 
10x12 one) and let the first one ring, then go down to Eb octave chord
(That's the 7x9 one)and let that ring into the verse.

Repeat Chorus Twice

[Basically just play the first part 3 times and then play the last part, then do it
all over again.]

-----------------------------------------------------------------------------

Verse 2:

Guitar 1: Clean
Eb|-------------|------------|------------|------------|
Bb|---8---7-7---|8-8---7-7---|8-8---7-7---|8-8---7-7---|
Gb|---9---9-9---|9-9---9-9---|9-9---9-9---|9-9---9-9---|
Db|-------------|------------|------------|------------|
Ab|-------------|------------|------------|------------|
Eb|-------------|------------|------------|------------|

_____________________________________

Eb|-------------|    |-------------|
Bb|---8-8---7-7-|    |-------------|
Gb|---9-9---9-9-| x7 |9-9---9-9-9-9| (Repeat this part
Db|-------------|    |9-9---9-9-9-9|       Twice)
Ab|-------------|    |-------------|
Eb|-------------|    |-------------|
_____________________________________

Guitar 2: Distortion

Eb|-------------|--------|----------|--------|
Bb|-------------|--------|----------|--------|
Gb|---16---9~---|11~-12~-|--16---9~-|5~-7~-4-|
Db|----x---x----|-x---x--|---x--x---|x--x~-x-|
Ab|---14---7~---|-9~-10~-|--14---7~-|3~-5~-2-|
Eb|-------------|--------|----------|--------|


Eb|-------------|------------|------------|-------------|
Bb|-------------|------------|------------|-------------|
Gb|-------------|--5---5-5---|5-7---7-7---|7------------|
Db|---2---2-2---|2-5---5-5---|5-7---7-7---|7-7---7-7---7|
Ab|---2---2-2---|2-3---3-3---|3-5---5-5---|5-7---7-7---7|
Eb|---0---0-0---|0-----------|------------|--5---5-5---5|

Eb|-------------|------------|------------|----|
Bb|-------------|------------|------------|----|
Gb|-------------|--5---5-5---|5-----------|----|
Db|---2---2-2---|2-5---5-5---|5-5---5-5---|5-2-|
Ab|---2---2-2---|2-3---3-3---|3-5---5-5---|5-2-|
Eb|---0---0-0---|0-----------|--3---3-3---|3-0-| 

Guitar 3: Distortion
(Comes in when the second part of guitar 2 comes in)

Eb|-----|--|--|--|--|--|--|--|
Bb|-----|--|--|--|--|--|--|--|
Gb|-----|5~|7~|--|--|5~|--|--|
Db|---2~|5~|7~|7~|2~|5~|5~|2-|
Ab|---2~|3~|5~|7~|2~|3~|5~|2-|
Eb|---0~|--|--|5~|0~|--|3~|0-|



---------------------------------------------------------------------


Chorus 2:

Guitar 1: Distortion

Eb|-------------|--------------|--------------|------------| \
Bb|-------------|--------------|--------------|------------| |
Gb|-------------|--------------|--------------|------------| |
Db|---2--2-2-2--|2-2-2--2-2-2--|2-2-5--5-5-5--|5-5-5--5-5-5| |
Ab|---2--2-2-2--|2-2-2--2-2-2--|2-2-5--5-5-5--|5-5-5--5-5-5| |
Eb|---0--0-0-0--|0-0-0--0-0-0--|0-0-3--3-3-3--|3-3-3--3-3-3| |
                                                             |
Eb|-----------------|--------------|--------------|          |
Bb|-----------------|--------------|--------------|          |
Gb|-------7--7-7-7--|7-7-7--7-7-7--|7-7-5--5-5-5--|          | x2
Db|---5-5-7--7-7-7--|7-7-7--7-7-7--|7-7-5--5-5-5--|          |
Ab|---5-5-5--5-5-5--|5-5-5--5-5-5--|5-5-3--3-3-3--|          |
Eb|---3-3-----------|--------------|--------------|          |
                                                             |
Eb|-----------------|----|                                   |
Bb|-----------------|----|                                   |              
Gb|---5-5-5--5-5-5--|5-5-|                                   |
Db|---5-5-5--5-5-5--|5-5-|                                   |
Ab|---3-3-3--3-3-3--|3-3-|                                   |
Eb|-----------------|----|                                   /


Guitar 2: Distortion

Eb|-----------------|------------|    |-----------------------|
Bb|-----------------|------------|    |-----------------------|
Gb|---9\7/9--9-9-9--|9\7/12\11-11| x3 |14-14-14-14-12-12-12-12|
Db|---x-x-x--x-x-x--|x-x--x--x--x|    |-x--x--x--x--x--x--x--x|
Ab|---7\5/7--7-7-7--|7\5/10\-9--9|    |12-12-12-12-10-10-10-10|
Eb|-----------------|------------|    |-----------------------|

Eb|--------------------------| End Without the three final
Bb|--------------------------| Gb (Or G in Standard tuning)
Gb|---11-11-11-11-12-12-12-12| octave chords (That's the 10x12
Db|----x--x--x--x--x--x--x--x| one) and let the first one ring,
Ab|----9--9--9--9-10-10-10-10| then go down to Eb octave chord
Eb|--------------------------| (That's the 7x9 one)and let that
                               ring into the verse.

Repeat Chorus Twice

[Basically just play the first part 3 times and then play the last part, then do it
all over again.]


------------------------------------------------------------------------

Bridge:


Guitar 1: Distortion

Eb|---------------|---------------|-------------|--------------|
Bb|---------------|---------------|-------------|--------------|
Gb|---------------|---------------|-------------|--------------| x3
Db|---7-----------|---------------|5------------|------5-----5-|
Ab|---7--7-7-7-7-7|-7-7-7-7-7-7-7-|5--5-5-5-5-5-|5-5-5-5-5-5-5-|
Eb|---5--5-5-5-5-5|-5-5-5-5-5-5-5-|3--3-3-3-3-3-|3-3-3-3-3-3-3-|

Eb|---------------|---------------|-------------|--------------|
Bb|---------------|---------------|-------------|--------------|
Gb|---------------|---------------|-------------|--------------|
Db|---3-----------|---------------|2------------|--------------|
Ab|---3--3-3-3-3-3|-3-3-3-3-3-3-3-|2--2-2-2-2-2-|2-2-2-2-2-2-2-|
Eb|---1--1-1-1-1-1|-1-1-1-1-1-1-1-|0--0-0-0-0-0-|0-0-0-0-0-0-0-|

Eb|-----------------------|
Bb|-----------------------|
Gb|-----------------------|
Db|---7-7-7-7-7-7-7-7-7-7-|
Ab|---7-7-7-7-7-7-7-7-7-7-|
Eb|---5-5-5-5-5-5-5-5-5-5-|

(Still Guitar 1)

Eb|---------------|---------------|-------------|--------------| \
Bb|---------------|---------------|-------------|--------------| |
Gb|---------------|---------------|-------------|--------------| |
Db|---2-----------|---------------|5------------|--------------| |
Ab|---2--2-2-2-2-2|-2-2-2-2-2-2-2-|5--5-5-5-5-5-|5-5-5-5-5-5-5-| |
Eb|---0--0-0-0-0-0|-0-0-0-0-0-0-0-|3--3-3-3-3-3-|3-3-3-3-3-3-3-| |
                                                                 | x2
Eb|---------------|---------------|-------------|--------------| |
Bb|---------------|---------------|-------------|--------------| |
Gb|---7-----------|---------------|5------------|------------5~| |
Db|---7--7-7-7-7-7|-7-7-7-7-7-7-7-|5--5-5-5-5-5-|5-5-5-5-5-5-5~| |
Ab|---5--5-5-5-5-5|-5-5-5-5-5-5-5-|3--3-3-3-3-3-|3-3-3-3-3-3-3~| |
Eb|---------------|---------------|-------------|--------------| /

(Only let the last F#5 ring on the last time)(F#5 is 355 or the
the last note)

Eb|-----|
Bb|-----|
Gb|-----|
Db|---2~|
Ab|---2~|
Eb|---0~|



Guitar 2:

Eb|-----|--|--|-------|----------------|----------------|
Bb|-----|--|--|-------|----------------|----------------|
Gb|---9~|7~|9~|9/10-7~|9-9-9-9-9-9-9-9-|9-9-9-9-9-9-9-9-|
Db|---x-|x-|x-|x--x-x-|x-x-x-x-x-x-x-x-|x-x-x-x-x-x-x-x-|
Ab|---7~|5~|7~|7/-9-5~|7-7-7-7-7-7-7-7-|7-7-7-7-7-7-7-7-|
Eb|-----|--|--|-------|----------------|----------------|

Eb|-------------------|----------------|
Bb|-------------------|----------------|
Gb|---7-7-7-7-7-7-7-7-|7-7-7-7-7-7-7-7-|
Db|---x-x-x-x-x-x-x-x-|x-x-x-x-x-x-x-x-|
Ab|---5-5-5-5-5-5-5-5-|5-5-5-5-5-5-5-5-|
Eb|-------------------|----------------|

Eb|-------------------|----------------|
Bb|-------------------|----------------|
Gb|---5-5-5-5-5-5-5-5-|5-5-5-5-5-5-5-5-|
Db|---x-x-x-x-x-x-x-x-|x-x-x-x-x-x-x-x-|
Ab|---3-3-3-3-3-3-3-3-|3-3-3-3-3-3-3-3-|
Eb|-------------------|----------------|

Eb|-------------------|----------------|
Bb|-------------------|----------------|
Gb|---4-4-4-4-4-4-4-4-|4-4-4-4-4-4-4-4-|
Db|---x-x-x-x-x-x-x-x-|x-x-x-x-x-x-x-x-|
Ab|---2-2-2-2-2-2-2-2-|2-2-2-2-2-2-2-2-|
Eb|-------------------|----------------|

Eb|-------------------|--------------------|
Bb|-------------------|--------------------|
Gb|---9-9-9-9-9-9-9-9-|12-12-12-12-7-7-7-7-|
Db|---x-x-x-x-x-x-x-x-|-x--x--x--x-x-x-x-x-|
Ab|---7-7-7-7-7-7-7-7-|10-10-10-10-5-5-5-5-|
Eb|-------------------|--------------------|

Solo thing:


Eb|-------------------|------------------------| \
Bb|-------------------|------------------------| |
Gb|---9-9-9-9-9-9-9-9-|11-11-11-11-12-12-12-12-| | x3
Db|---x-x-x-x-x-x-x-x-|-x--x--x--x--x--x--x--x-| |
Ab|---7-7-7-7-7-7-7-7-|-9--9--9--9-10-10-10-10-| |
Eb|-------------------|------------------------| /

Eb|-------------------|----------------|
Bb|-------------------|----------------|
Gb|---9-9-9-9-9-9-9-9-|7-7-7-7-7-7-7-7-|
Db|---x-x-x-x-x-x-x-x-|x-x-x-x-x-x-x-x-|
Ab|---7-7-7-7-7-7-7-7-|5-5-5-5-5-5-5-5-|
Eb|-------------------|----------------|

Eb|----------------------| \
Bb|----------------------| |
Gb|---16--12--16-17-16-14| | x2
Db|----x---x---x--x--x--x| |
Ab|---14--10--14-15-14-12| |
Eb|----------------------| /

Eb|------------------------------------------|
Bb|------------------------------------------|
Gb|---14--14--14--14-12-16--16--16--16~/4~-4-|
Db|----x---x---x---x--x--x---x---x---x-----4-|
Ab|---12--12--12--12-10-14--14--14--14~/2~-2-|
Eb|------------------------------------------|

Then you know what to play for the rest of the song. (During the second
part of the last chorus both guitars play the same thing, guitar 1's
part.)

This is the right fuckin way to play it!!! 
Respect
Suggest correction
comments
print report bad tab
6 comments total. Showing first comments.
0 reply
UnavailableUser 157 wrote on May 25 2010, 09:31 pm

Finally, someone nailed it

0 reply
T1T4N5 10 wrote on May 28 2010, 07:54 am

with the verse u play the 7's and 8's thing 7 times the the 9's then the 7's and 8's 7 times again

0 reply
T1T4N5 10 wrote on May 28 2010, 07:55 am

my bad 8's and 9's not 7's and 8's

guest
You may want to rate the tab now too:
select rating
Wanna post a correction for this tab? Suggest correction