Oops, an error
Loading. Please wait.

Re-Education Bass Tab

version 2
version 2

Whole song

6,747 views 3 this week
1 commentread comment
1 2 3 4 5
worth learning
x 5
add to favorites
launch autoscroll
font size
0
reset
guitar tuner
Tab Pro tools
  • play this tab
  • loop segment
  • change instrument
  • show fretboard
  • metronome
Autoscroll
slow
fast
+/-
esc
set tempo
stop
Contributor
Bass Tab by: Saint Aries
Song: Re-Education (Through Labor)
Artist: Rise Against
Album: Appeal to Reason (2008)

I am apparently the first person to publish a bass tab for this song. I am almost done, 
having some trouble on the second half of the bridge. (thus the Stuff). If you have any 
or comments please feel free to contact me at howie52_jbass@yahoo.com

Rock on /B/rothers!

Intro
Gb|---------------|
Db|---------------|
Ab|---------------|
Eb|0-0-0-0-0-0-0-0|x7
(with the drums)


Verse 1
|------------|       |------------|
|------------|[Pause]|------------|
|----33----0-|       |----33----0-|
|0-0----33---|x8     |0-0----33---|x6

|-------------------------------------------------------------|
|-------------------------------------------------------------|
|-00-000-000-0000--00-000-000-0000--33-333-333-33330-555555555|
|----------------3----------------3---------------------------|


Chorus
|---------------------------------------------------------------------|
|---------------------------------------------------------------------|
|-----------------5-5-5-5-0-0-0-0-7-7-7-7-5-5-5-5-0-0-0-0-23-32-20----|
|-0-0-0-0-3-3-3-3--------------------------------------------------530|

|----------------------------------------------------------------|
|----------------------------------------------------------------|
|----------------555555550000000077777777555555550000000233332200|
|0000000033333333------------------------------------------------|


[Pause]


Verse 2
|--------------------------------------------|       |-----|
|--------------------------------------------|[Pause]|-----|
|------------33----0-----33----0-----33----0-|       |-----|
|0/(12)--0-0----33---0-0----33---0-0----33---|       |-0~~-|

|------------|
|------------|
|----33----0-|
|0-0----33---|x6

|----------------------------------|
|----------------------------------|
|-00-000-000-0000--00-000-000-0023-|
|----------------3-----------------|


Chorus
|---------------------------------------------------------------------|
|---------------------------------------------------------------------|
|-----------------5-5-5-5-0-0-0-0-7-7-7-7-5-5-5-5-0-0-0-0-23-32-20----|
|-0-0-0-0-3-3-3-3--------------------------------------------------530|

|-------------------------------------------------------|
|-------------------------------------------------------|
|----------------555555550000000077777777555555550000000|
|0000000033333333---------------------------------------|


Bridge
|--------------------------------------------------------|[stuff]
|--------------------------------------------------------|[stuff]
|000000003333333333333333-222222222222225555555555555555-|[stuff]
|--------------------------------------------------------|[stuff]


Outro
|----------------------------------------------------------------|
|----------------------------------------------------------------|
|----------------555555550000000077777777555555550000000233333333|
|0000000033333333------------------------------------------------|x3

|----------------------------------------------------------------|
|----------------------------------------------------------------|
|----------------55555555000000007777777755555555000000023-0-5-0-|
|0000000033333333------------------------------------------------|

|----------------------------------------------------------------|
|----------------------------------------------------------------|
|----------------55555555000000007-7-7-7-5-5-5-5-0-0-0-023-------|
|0000000033333333------------------------------------------0/(12)|
comments
print report bad tab
1 comment total.
0 reply
china_dweller wrote on December 5 2008, 01:27 am

very nice! but i'm not gonna rate it 5 cuz it's unfinished
let me knwo if you ever finish it and i'll change my vote

I want to post or [tab]
guest
You may want to rate the tab now too:
select rating
Please do not post tabs as comments. Select "correction" instead!