Oops, an error
Loading. Please wait.

Re-Education Bass Tab

version 4
version 4
3,371 views 9 this week
1 commentread comment
1 2 3 4 5
1 last vote to show rating
add to favorites
launch autoscroll
font size
0
reset
guitar tuner
Autoscroll
slow
fast
+/-
esc
set tempo
stop
Help us to improve Ultimate-Guitar.com Take our survey!
×
Author
Difficulty
Tuning
intermediate
D# G# C# F# A# D#
Artist: Rise Against
Album: Appeal to Reason
Song: Re-Education (Through Labor)
Tabbed By: ChrizC (timesplitter08@googlemail.com)

This is a tab I found somewhere else, edited to 100% correct.

Intro

Gb|-----------------|-----------------|-----------------|-----------------|
Db|-----------------|-----------------|-----------------|-----------------|
Ab|-----------------|-----------------|-----------------|-----------------|
Eb|-0-0-0-0-0-0-0-0-|-0-0-0-0-0-0-0-0-|-0-0-0-0-0-0-0-0-|-0-0-0-0-0-0-0-0-|

Gb|-----------------|-----------------|-----------------|-----------------|
Db|-----------------|-----------------|-----------------|-----------------|
Ab|-----------------|-----------------|-----------------|-----------------|
Eb|-0-0-0-0-0-0-0-0-|-0-0-0-0-0-0-0-0-|-0-0-0-0-0-0-0-0-|-0-0-0-0-0-0-0-0-|

Gb|-----------------|-----------------|-----------------|-----------------|
Db|-----------------|-----------------|-----------------|-----------------|
Ab|-------3-3-------|-------3-3-------|-------3-3-------|-------3-3-------|
Eb|-0---0-----3-3-5-|-0-0-0-----3-3-5-|-0---0-----3-3-5-|-0-0-0-----3-3---|

Gb|-----------------|-----------------|-----------------|-----------------|
Db|-----------------|-----------------|-----------------|-----------------|
Ab|-------3-3-------|-------3-3-------|-------3-3-------|-------3-3-------|
Eb|-0---0-----3-3-5-|-0-0-0-----3-3-5-|-0---0-----3-3-5-|-0-0-0-----3-3-5-|

Verse

Gb|-----------------|-----------------|-----------------|-----------------|
Db|-----------------|-----------------|-----------------|-----------------|
Ab|-----------------|-----------------|-------3-3-------|-------3-3-------|
Eb|-----------------|-----------------|-0---0-----3-3-5-|-0-0-0-----3-3-5-|

Gb|-----------------|-----------------|-----------------|-----------------|
Db|-----------------|-----------------|-----------------|-----------------|
Ab|-------3-3-------|-------3-3-------|-------3-3-------|-------3-3-------|
Eb|-0-0-0-----3-3-5-|-0-0-0-----3-3-5-|-0---0-----3-3-5-|-0-0-0-----3-3-5-|

Gb|-----------------|-----------------|-----------------|-----------------|
Db|-----------------|-----------------|-----------------|-----------------|
Ab|-----------------|-----------------|-----------------|-----------------|
Eb|-5-5---5-5-5---5-|-5-5---5-5-5-5-3-|-5-5---5-5-5---5-|-5-5---5-5-5-5-5-|

Gb|-----------------|-----------------|-----------------|-----------------|
Db|-----------------|-----------------|-----------------|-----------------|
Ab|-3-3---3-3-3---3-|-3-3---3-3-3-3-3-|-5-5-5-5-5-5-5-5-|-5---------------|
Eb|-----------------|-----------------|-----------------|-----------------| 

Chorus

Gb|-----------------|-----------------|-----------------|-----------------|
Db|-----------------|-----------------|-----------------|-----------------|
Ab|-----------------|-----------------|-5---5---5---5---|-0-0-0-0-0-0-0-5-|
Eb|-0---0---0---0---|-3-3-3-3-3-3-3-3-|-----------------|-----------------|

Gb|-----------------|-----------------|-----------------|-----------------|
Db|-----------------|-----------------|-----------------|-----------------|
Ab|-7---7---7---7---|-5-5-5-5-5-5-5-5-|-0---0---0---0-2-|-3-2-0---------5-|
Eb|-----------------|-----------------|-----------------|-------3-2-0-2---|


Gb|-----------------|-----------------|-----------------|-----------------|
Db|-----------------|-----------------|-----------------|-----------------|
Ab|-----------------|-----------------|-5-5-5-5-5-5-5-5-|-0-0-0-0-0-0-0-5-|
Eb|-0-0-0-0-0-0-0-0-|-3-3-3-3-3-3-3-3-|-----------------|-----------------|

Gb|-----------------|-----------------|-----------------|-----------------|
Db|-----------------|-----------------|-----------------|-----------------|
Ab|-7-7-7-7-7-7-7-7-|-5-5-5-5-5-5-5-5-|-0-0-0-0-0-0-0-0-|-3-3-3-3-3-3-3-3-|
Eb|-----------------|-----------------|-----------------|-----------------|

Interlude

Gb|-----------------|-----------------|-----------------|-----------------|
Db|-----------------|-----------------|-----------------|-----------------|
Ab|-----------------|-----------------|-------3-3-------|-------3-3-------|
Eb|-0---------------|-----------2/14\-|-0---0-----3-3-5-|-0-0-0-----3-3-5-|

Gb|-----------------|-----------------|
Db|-----------------|-----------------|
Ab|-------3-3-------|-----------------|
Eb|-0---0-----3-3-5-|-----------------|

Verse

Gb|-----------------|-----------------|-----------------|-----------------|
Db|-----------------|-----------------|-----------------|-----------------|
Ab|-------3-3-------|-------3-3-------|-------3-3-------|-------3-3-------|
Eb|-0-0-0-----3-3-5-|-0-0-0-----3-3-5-|-0---0-----3-3-5-|-0-0-0-----3-3-5-|

Gb|-----------------|-----------------|-----------------|-----------------|
Db|-----------------|-----------------|-----------------|-----------------|
Ab|-------3-3-------|-------3-3-------|-------3-3-------|-------3-3-------|
Eb|-0-0-0-----3-3-5-|-0-0-0-----3-3-5-|-0---0-----3-3-5-|-0-0-0-----3-3-5-|

Gb|-----------------|-----------------|-----------------|-----------------|
Db|-----------------|-----------------|-----------------|-----------------|
Ab|-----------------|-----------------|-----------------|-----------------|
Eb|-5-5---5-5-5---5-|-5-5---5-5-5-5-3-|-5-5---5-5-5---5-|-5-5---5-5-7-8---|

Chorus

Gb|-----------------|-----------------|-----------------|-----------------|
Db|-----------------|-----------------|-----------------|-----------------|
Ab|-----------------|-----------------|-5---5---5---5---|-0-0-0-0-0-0-0-5-|
Eb|-0---0---0---0---|-3-3-3-3-3-3-3-3-|-----------------|-----------------|

Gb|-----------------|-----------------|-----------------|-----------------|
Db|-----------------|-----------------|-----------------|-----------------|
Ab|-7---7---7---7---|-5-5-5-5-5-5-5-5-|-0---0---0---0-2-|-3-2-0---------5-|
Eb|-----------------|-----------------|-----------------|-------3-2-0-2---|

Gb|-----------------|-----------------|-----------------|-----------------|
Db|-----------------|-----------------|-----------------|-----------------|
Ab|-----------------|-----------------|-5-5-5-5-5-5-5-5-|-0-0-0-0-0-0-0-5-|
Eb|-0-0-0-0-0-0-0-0-|-3-3-3-3-3-3-3-3-|-----------------|-----------------|

Gb|-----------------|-----------------|
Db|-----------------|-----------------|
Ab|-7-7-7-7-7-7-7-7-|-5-5-5-5-5-5-5-5-|
Eb|-----------------|-----------------| 

Bridge

Gb|-----------------|-----------------|-----------------|-----------------|
Db|-----------------|-----------------|-----------------|-----------------|
Ab|-0-0-0-0-0-0-0-0-|-0-0-0-0-0---0-2-|-3-3-3-3-3-3-3-3-|-3-3-3-3-3-3-3-3-|
Eb|-----------------|-----------------|-----------------|-----------------|

Gb|-----------------|-----------------|-----------------|-----------------|
Db|-----------------|-----------------|-----------------|-----------------|
Ab|-2-2-2-2-2-2-2-2-|-2-2-2-2-2-2-2-2-|-5-5-5-5-5-5-5-5-|-5-5-5-5-5-5-5-5-|
Eb|-----------------|-----------------|-----------------|-----------------|

Gb|-----------------|-----------------|-----------------|-----------------|
Db|-----------------|-----------------|-----------------|-----------------|
Ab|-3---3---3-3-3-5-|---5-5---5-5-5-5-|---------------2-|---2-2---2-2-2-2-|
Eb|-----------------|-----------------|-0---0---0-0-0---|-----------------|

Gb|-----------------|-----------------|
Db|-----------------|-----------------|
Ab|-3-3-3-3-3-3-3-3-|-5-5-5-5-5-5-5-5-|
Eb|-----------------|-----------------| 

Interlude

Gb|-----------------|-----------------|-----------------|-----------------|
Db|-----------------|-----------------|-----------------|-----------------|
Ab|-----------------|-----------------|-5-5-5-5-5-5-5-5-|-0-0-0-0-0-0-0-0-|
Eb|-0-0-0-0-0-0-0-0-|-3-3-3-3-3-3-3-3-|-----------------|-----------------|

Gb|-----------------|-----------------|-----------------|-----------------|
Db|-----------------|-----------------|-----------------|-----------------|
Ab|-7-7-7-7-7-7-7-7-|-5-5-5-5-5-5-5-5-|-0-0-0-0-0-0-0-2-|-3-3-3-3-3-3-3-3-|
Eb|-----------------|-----------------|-----------------|-----------------|

Gb|-----------------|-----------------|-----------------|-----------------|
Db|-----------------|-----------------|-----------------|-----------------|
Ab|-----------------|-----------------|-5-5-5-5-5-5-5-5-|-0-0-0-0-0-0-0-0-|
Eb|-0-0-0-0-0-0-0-0-|-3-3-3-3-3-3-3-3-|-----------------|-----------------|

Gb|-----------------|-----------------|-----------------|-----------------|
Db|-----------------|-----------------|-----------------|-----------------|
Ab|-7-7-7-7-7-7-7-7-|-5-5-5-5-5-5-5-5-|-0-0-0-0-0-0-0-2-|-3-3-3-3-3-3-3-3-|
Eb|-----------------|-----------------|-----------------|-----------------|

Gb|-----------------|-----------------|-----------------|-----------------|
Db|-----------------|-----------------|-----------------|-----------------|
Ab|-----------------|-----------------|-5-5-5-5-5-5-5-5-|-0-0-0-0-0-0-0-5-|
Eb|-0-0-0-0-0-0-0-0-|-3-3-3-3-3-3-3-3-|-----------------|-----------------|

Gb|-----------------|-----------------|-----------------|-----------------|
Db|-----------------|-----------------|-----------------|-----------------|
Ab|-7-7-7-7-7-7-7-7-|-5-5-5-5-5-5-5-5-|-0-0-0-0-0-0-0-2-|-3-3-3-3-3\\\----|
Eb|-----------------|-----------------|-----------------|-----------------|

Chorus

Gb|-----------------|-----------------|-----------------|-----------------|
Db|-----------------|-----------------|-----------------|-----------------|
Ab|-----------------|-----------------|-5-5-5-5-5-5-5-5-|-0-0-0-0-0-0-0-5-|
Eb|-0-0-0-0-0-0-0-0-|-3-3-3-3-3-3-3-3-|-----------------|-----------------|

Gb|-----------------|-----------------|-----------------|-----------------|
Db|-----------------|-----------------|-----------------|-----------------|
Ab|-7-7-7-7-7-7-7-7-|-5-5-5-5-5-5-5-5-|-0-0-0-0-0-0-0-2-|-3-------5---0---|
Eb|-----------------|-----------------|-----------------|-----3-----------|

Gb|-----------------|-----------------|-----------------|-----------------|
Db|-----------------|-----------------|-----------------|-----------------|
Ab|-----------------|-----------------|-5-5-5-5-5-5-5-5-|-0-0-0-0-0-0-0-5-|
Eb|-0-0-0-0-0-0-0-0-|-3-3-3-3-3-3-3-3-|-----------------|-----------------|

Gb|-----------------|-----------------|-----------------|-----------------|
Db|-----------------|-----------------|-----------------|-----------------|
Ab|-7---7---7---7---|-5---5---5---5---|-0---0---0---0-2-|-3---------------|
Eb|-----------------|-----------------|-----------------|-----------------|

Gb|-----------------||
Db|-----------------||
Ab|-7\\\\\\---------||
Eb|-----------------||

Legend:
x/y\ - Slide down from x to y and back up again.
x\\\\\\\ - Slide up from x to first fret.
	
Suggest correction
Give kudos to tab author, rate the tab!
1 2 3 4 5
comments
print report bad tab
1 comment total.
0 reply
maxpowweer 618 Jul 04, 2012 08:34 PM

"This is a tab I found somewhere else"
Yeah, version one!

guest
You may want to rate the tab now too:
select rating
Wanna post a correction for this tab? Suggest correction