Oops, an error
Loading. Please wait.

Ready To Fall Bass Tab

version 1
version 1
12,433 views 3 this week
3 commentsread comments
1 2 3 4 5
x 11
add to favorites
launch autoscroll
font size
0
reset
guitar tuner
Autoscroll
slow
fast
+/-
esc
set tempo
stop
Help us to improve Ultimate-Guitar.com Take our survey!
×
Author
Difficulty
novice
 8 second intro..no bass.

Intro after 8 second intro
G|--------------------|
D|--------------------|
A|-4444------00000000-|   x3
E|------2222----------|

G|--------------------|
D|--------------------|
A|--------------------|
E|---7 x16------------|

Verse
G|---------------------------------------|
D|---------------------------------------|
A|-44444444------------------------------| x4
E|----------00000000-5555-2222-5555-7777-|

Pre-Chorus
G|---------------------------------|
D|---------------------------------|
A|---------------------------------|
E|-555555--222222--555555-777777---|


G|-------------------------------------|
D|-----------------------------/99-----|
A|------------------------2222-----76--|
E|-555555--222222--555555--------------|

Chorus
G|--------------------|
D|--------------------|
A|-4444------00000000-|  x3
E|------2222----------|

G|----------------------------|
D|----------------------------|
A|-4444------00000000-2 x16---|
E|------2222------------------|

Verse
G|---------------------------------------|
D|---------------------------------------|
A|-44444444------------------------------| x4
E|----------00000000-5555-2222-5555-7777-|

Pre-Chorus
G|---------------------------------|
D|---------------------------------|
A|---------------------------------|
E|-555555--222222--555555-777777---|


G|-------------------------------------|
D|-----------------------------/99-----|
A|------------------------2222-----76--|
E|-555555--222222--555555--------------|

Chorus
G|--------------------|
D|--------------------|
A|-4444------00000000-|  x4
E|------2222----------|

G|----------------------------------------------------|
D|----------------------------------------------------|
A|-22222222--9-7-6-7---9-7-6-7777---------6-7-60------| x2
E|--------------------------------55555-7-------------|

G|----------------------------------------------------|
D|-------------------------77777777-9767-6------------|
A|-22222222--9-7-6-7---9-7-----------------7----------|
E|----------------------------------------------------|

G|-----------------------------------------------|
D|-----------------------------------------------|
A|-22222222--9-7-6-7---9-7-6-777-----------------|
E|-------------------------------555-955-555 9~--|

Chorus
G|--------------------|
D|--------------------|
A|-4444------00000000-| till the end
E|------2222----------|

end on
G|-------|
D|-------|
A|---4---|
E|-------|

comment if any mistakes, this is my first tab. i wrote this because all the others ones 
found for this song seemed wrong... i think this is right.
Suggest correction
comments
print report bad tab
3 comments total.
0 reply
FBassman 1,012 May 14, 2008 08:08 PM

wow six tabs on the site and none of them are accurate! I'll post one soon

0 reply
dylanblah 10 Jul 16, 2009 12:45 AM

drop all the strings down one fret and ur good :D

+1 reply
Andsome 82 Jul 20, 2011 09:36 AM

I think this is the best of the lot here.

guest
You may want to rate the tab now too:
select rating
Wanna post a correction for this tab? Suggest correction