Oops, an error
Loading. Please wait.

Ready To Fall Tab

version 2
version 2

Whole song

127,549 views 57 this week
44 commentsread comments
1 2 3 4 5
excellent!
x 65
add to favorites
launch autoscroll
font size
0
reset
how to read this tab
guitar tuner
Autoscroll
slow
fast
+/-
esc
set tempo
stop
Help us to improve Ultimate-Guitar.com Take our survey!
×
Contributor
Difficulty
shugo449 874
intermediate
Rise Against
Ready to Fall
The Sufferer & the Witness

I took some of this from ver 1, but i modified quite a bit of it and
made it how i think it is played.

UPDATE 9/2/06: i noticed something in the bridge. Its some sort of picking pattern thats
quiet. I tabbed it out. If you can't understand how i explained the end please tell me
i'll just tab it out- i got lazy after typing for 5 hours. =)

UPDATE 10/20/06: I was listening and noticed some octaves in the verse. If you don't 
em, don't play till last 3. Also is pre-chorus, I changed G# to F#, thanks to a suggestion 
NASA. Kudos.=)


tunning: standard

INTRO

guitar 1
|-------------------------------|-----------------5-5-5-------|
|-------------------------------|-----------------5-5-5-------|
|-------------------------------|-----------------6-6-6-6-6---|
|-------------------------------|-6-6-6-6---------7-7-7-7-7---|
|-4-4-4-4--------0-0-0-0-0-0-0-0|-4-4-4-4-4-4-4-4-7-7-7-7-7---|
|--------2-2-2-2----------------|---------2-2-2-2-5-5-5-5-5---|
PM***********************************************             |
 guitar 2                                                     |
|-------------------------------|-----------------------------|
|-------------------------------|-----------------------------|
|-------------------------------|-----------------------------|
|-------------------------------|-----------------------------|
|-------------------------------|-----------------------------|
|-------------------------------|-----------------------------|

|--------------------------------|--------------------------------|
|--------------------------------|--------------------------------|
|-6-6-6-6---------2-2-2-2-2-2-2-2|-6-6-6-6---------2-2-2-2-2-2-2-2|
|-6-6-6-6-4-4-4-4-2-2-2-2-2-2-2-2|-6-6-6-6-4-4-4-4-2-2-2-2-2-2-2-2|
|-4-4-4-4-4-4-4-4-0-0-0-0-0-0-0-0|-4-4-4-4-4-4-4-4-0-0-0-0-0-0-0-0|
|---------2-2-2-2----------------|---------2-2-2-2----------------|
                                                                  |
                                                                  |
|--------------------------------|--------------------------------|
|--------------------------------|--------------------------------|
|-6-6-6-6---------2-2-2-2-2-2-2-2|-6-6-6-6---------2-2-2-2-2-2-2-2|
|-6-6-6-6-4-4-4-4-2-2-2-2-2-2-2-2|-6-6-6-6-4-4-4-4-2-2-2-2-2-2-2-2|
|-4-4-4-4-4-4-4-4-0-0-0-0-0-0-0-0|-4-4-4-4-4-4-4-4-0-0-0-0-0-0-0-0|
|---------2-2-2-2----------------|---------2-2-2-2----------------|

|--------------------------------|---------------------------|
|--------------------------------|---------------------------|
|-6-6-6-6---------2-2-2-2-2-2-2-2|-8888-9999-11111111-9999-9\|
|-6-6-6-6-4-4-4-4-2-2-2-2-2-2-2-2|-xxxx-xxxx-x-x-x-x--xxxx-x\|
|-4-4-4-4-4-4-4-4-0-0-0-0-0-0-0-0|-6666-7777-9-9-9-9--7777-7\|
|---------2-2-2-2----------------|---------------------------|
                                                             |
                                                             |
|--------------------------------|---------------------------|
|--------------------------------|---------------------------|
|--------------------------------|-8888-9999-11111111-9999-9.|
|-666-4/6-666-4/6-444-4/6-666-4/6|-xxxx-xxxx-x-x-x-x--xxxx-x.|
|-444-2/4-444-2/4-444-2/4-444-2/4|-6666-7777-9-9-9-9--7777-7.|
|--------------------------------|---------------------------|


VERSE
|--------------------------------------------|
|--------------------------------------------|
|--------------------------------------------|
|--------------------------------------------|
|--------------------------------------------|
|--------------------------------------------|
  hold on, slow down, again from the top now,|
                                             |
|--------------------------------------------|
|--------------------------------------------|
|--------------------------------------------|
|--------------------------------------------|
|--------------------------------------------|
|--------------------------------------------|


                        H H  H
|------------------------------4.---|-------------------------------|
|----------------------------5---5.-|-------------------------------|
|-------------------------6---------|-------------------------------|
|-----------------------6-----------|-------------------------------|
|-----------------------------------|-------------------------------|
|-----------------------------------|-------------------------------|
  and tell me everything.            I know I've been gone, for what|
                                                           H        |
|-----------------------------------|-------------------------------|
|-----------------------------------|----------------------5--------|
|---------------------------------6-|-------------------------------|
|---------------------------------x-|-------------------------------|
|---------------------------------4-|-------------------------------|
|-----------------------------------|-------------------------------|

|-----------------------------------|--------------------|
|-----------------------------------|----------2/4\2p0---|
|-----------------------------------|--------------------|
|-----------------------------------|--------------------|
|-----------------------------------|--------------------|
|-----------------------------------|--------------------|
  seems like forever, but here I'm now waiting.          |
                                                         |
|-----------------------------------|--------------------|
|-----------------------------------|--------------------|
|-----------------------------------|--------------------|
|-----------------------------------|--------------------|
|-----------------------------------|----------------x/--|
|-----------------------------------|----------------x/--|

|---------------------------------------------------|
|---------------------------------------------------|
|---------------------------------------------------|
|---------------------------------------------------|
|---------------------------------------------------|
|---------------------------------------------------|
  To covince you that i'm not a ghost or a stranger,|
                                                    |
|---------------------------------------------------|
|---------------------------------------------------|
|-6-------------------------------------------------|
|-x-------------------------------------------------|
|-4-------------------------------------------------|
|---------------------------------------------------|

|---------------------------4--4-7.-|--------------------------------|
|--------------------------5-5.-----|--------------------------------|
|-----------------------------------|--------------------------------|
|-----------------------------------|--------------------------------|
|-----------------------------------|--------------------------------|
|-----------------------------------|--------------------------------|
  but closer than you think.          She Said, "Just go on with what|
                                                                     |
|-----------------------------------|--------------------------------|
|-----------------------------------|--------------------------------|
|-----------------------------------|----------6.--------------------|
|-----------------------------------|----------x.--------------------|
|-----------------------------------|----------4.--------------------|
|-----------------------------------|--------------------------------|

|------------------------------------------------------4---7.|
|-------------------------------------------------------5-5.-|
|--------------------------------------------------------6.--|
|------------------------------------------------------------|
|------------------------------------------------------------|
|------------------------------------------------------------|
  you pretend is your life but please don't die on me!"      |
                                                             |
|------------------------------------------------------------|
|------------------------------------------------------------|
|-------8.--------------------9.-----------------------------|
|-------x.--------------------x.-----------------------------|
|-------6.--------------------7.-----------------------------|
|------------------------------------------------------------|

PRE-CHORUS
|--------------------------------------------|
|--------------------------------------------|
|-2-22-222222-------2-22-22-2222-4-44-44-----|
|-2-22-2222224-44-442-22-22-2222-4-44-44-----|
|-0-00-0000004-44-440-00-00-0000-2-22-22-----|
|------------2-22-22-------------------------|
  Wings won't take me!Heights don't phase me!|
                                             |
|--------------------------------------------|
|--------------------------------------------|
|-99999999-8888-6666--99999999-8888-6666-----|
|-xxxxxxxx-xxxx-xxxx--xxxxxxxx-xxxx-xxxx-----|
|-77777777-6666-4444--77777777-6666-4444-----|
|--------------------------------------------|

|--------------------------------------------------|
|--------------------------------------------------|
|-99999999--8888--6666--9999999999--111111111111111|
|-xxxxxxxx--xxxx--xxxx--9999999999--111111111111111|
|-77777777--6666--4444--7777777777--9-9-9-9-9-9-9-9|
|--------------------------------------------------|
  So take a step! But don't look down, take a step!|
                                                   |
|--------------------------------------------------|
|--------------------------------------------------|
|-99999999--8888--6666--9999999999--111111111111111|
|-xxxxxxxx--xxxx--xxxx--9999999999--111111111111111|
|-77777777--6666--4444--7777777777--9-9-9-9-9-9-9-9|
|--------------------------------------------------|

Chorus
|-----------------------------------------------|
|-----------------------------------------------|
|--6-6-6-6-----------2-2-2-2-2-2-2-2------------|
|--6-6-6-6--4-4-4-4--2-2-2-2-2-2-2-2------------|
|--4-4-4-4--4-4-4-4--0-0-0-0-0-0-0-0------------|
|-----------2-2-2-2-----------------------------|
 Now I'm standing on the roof top Ready To Fall!|
                                 (ready to fall)|
|-----------------------------------------------|
|-----------------------------------------------|
|--6-6-6-6-----------2-2-2-2-2-2-2-2------------|
|--6-6-6-6--4-4-4-4--2-2-2-2-2-2-2-2------------|
|--4-4-4-4--4-4-4-4--0-0-0-0-0-0-0-0------------|
|-----------2-2-2-2-----------------------------|


|-----------------------------------------------|
|-----------------------------------------------|
|--6-6-6-6-----------2-2-2-2-2-2-2-2------------|
|--6-6-6-6--4-4-4-4--2-2-2-2-2-2-2-2------------|
|--4-4-4-4--4-4-4-4--0-0-0-0-0-0-0-0------------|
|-----------2-2-2-2-----------------------------|
I think I'm on the edge now but I could be wrong|
                                                |
|-----------------------------------------------|
|-----------------------------------------------|
|--6-6-6-6-----------2-2-2-2-2-2-2-2------------|
|--6-6-6-6--4-4-4-4--2-2-2-2-2-2-2-2------------|
|--4-4-4-4--4-4-4-4--0-0-0-0-0-0-0-0------------|
|-----------2-2-2-2-----------------------------|

|-------------------------------------------|
|-------------------------------------------|
|--6-6-6-6-----------2-2-2-2-2-2-2-2--------|
|--6-6-6-6--4-4-4-4--2-2-2-2-2-2-2-2--------|
|--4-4-4-4--4-4-4-4--0-0-0-0-0-0-0-0--------|
|-----------2-2-2-2-------------------------|
 I'm standing on the roof top Ready To Fall!|
                             (ready to fall)|
|-------------------------------------------|
|-------------------------------------------|
|-------------------------------------------|
|-666-4/6-666-4/6-444-4/6-666-4/6-----------|
|-444-2/4-444-2/4-444-2/4-444-2/4-----------|
|-------------------------------------------|


|--------------------------------|---------------------------|
|--------------------------------|---------------------------|
|-6-6-6-6---------2-2-2-2-2-2-2-2|-8888-9999-11111111-9999-9\|
|-6-6-6-6-4-4-4-4-2-2-2-2-2-2-2-2|-xxxx-xxxx-x-x-x-x--xxxx-x\|
|-4-4-4-4-4-4-4-4-0-0-0-0-0-0-0-0|-6666-7777-9-9-9-9--7777-7\|
|---------2-2-2-2----------------|---------------------------|
                                                             |
                                                             |
|--------------------------------|---------------------------|
|--------------------------------|---------------------------|
|--------------------------------|-8888-9999-11111111-9999-9.|
|-666-4/6-666-4/6-444-4/6-666-4/6|-xxxx-xxxx-x-x-x-x--xxxx-x.|
|-444-2/4-444-2/4-444-2/4-444-2/4|-6666-7777-9-9-9-9--7777-7.|
|--------------------------------|---------------------------|

Verse:
Perpetual motion, the image won't focus,
a blur is all that's seen.
But, here in this moment,like the eye of the storm,
it all came clear to me.
I found a shoulder to lean on,
an infallible reason to live all by itself.
I took one last look from the heights that i once loved,
and then i ran like Hell!


PLAY PRE-CHORUS


PLAY CHORUS


Bridge
|---------------------------------------|
|---------------------------------------|
|---------------------------------------|
|--9-9-9-9-9-9-9-9-9-9-9-9-9-9-9-9------|
|--9-9-9-9-9-9-9-9-9-9-9-9-9-9-9-9------|
|--7-7-7-7-7-7-7-7-7-7-7-7-7-7-7-7------|
 I count the times that I've beens sorry|
                                        |
|---------------------------------------|
|---------------------------------------|
|---------------------------------------|
|--9-9-9-9-9-9-9-9-9-9-9-9-9-9-9-9------|
|--9-9-9-9-9-9-9-9-9-9-9-9-9-9-9-9------|
|--7-7-7-7-7-7-7-7-7-7-7-7-7-7-7-7------|


|---------------------------------|
|---------------------------------|
|---------------------------------|
|--7-7-7-7-7-7-7-7-7-7-7-7-7-7-7-7|
|--7-7-7-7-7-7-7-7-7-7-7-7-7-7-7-7|
|--5-5-5-5-5-5-5-5-5-5-5-5-5-5-5-5|
                                  |
   ( I know,    I know)           |
|---------------------------------|
|---------------------------------|
|----6-------6-------6-------6----|
|------7-------7-------7-------7--|
|--------7-------7-------7-------7|
|--5-------5-------5-------5------|


|---------------------------------------|
|---------------------------------------|
|---------------------------------------|
|--9-9-9-9-9-9-9-9-9-9-9-9-9-9-9-9------|
|--9-9-9-9-9-9-9-9-9-9-9-9-9-9-9-9------|
|--7-7-7-7-7-7-7-7-7-7-7-7-7-7-7-7------|
 while my compassion slowly guides me   |
                                        |
|---------------------------------------|
|---------------------------------------|
|---------------------------------------|
|--9-9-9-9-9-9-9-9-9-9-9-9-9-9-9-9------|
|--9-9-9-9-9-9-9-9-9-9-9-9-9-9-9-9------|
|--7-7-7-7-7-7-7-7-7-7-7-7-7-7-7-7------|


|---------------------------------|
|---------------------------------|
|---------------------------------|
|--7-7-7-7-7-7-7-7-7-7-7-7-7-7-7-7|
|--7-7-7-7-7-7-7-7-7-7-7-7-7-7-7-7|
|--5-5-5-5-5-5-5-5-5-5-5-5-5-5-5-5|
                                  |
   ( I know,    I know)           |
|---------------------------------|
|---------------------------------|
|----6-------6-------6-------6----|
|------7-------7-------7-------7--|
|--------7-------7-------7-------7|
|--5-------5-------5-------5------|

|--------------------------------------------|
|--------------------------------------------|
|--------------------------------------------|
|--9-9-9-9-9-9-9-9-9-9-9-9-9-9-9-9-----------|
|--9-9-9-9-9-9-9-9-9-9-9-9-9-9-9-9-----------|
|--7-7-7-7-7-7-7-7-7-7-7-7-7-7-7-7-----------|
 If there's a time this walls could gaurd you|
                                             |
|--------------------------------------------|
|--------------------------------------------|
|--------------------------------------------|
|--9-9-9-9-9-9-9-9-9-9-9-9-9-9-9-9-----------|
|--9-9-9-9-9-9-9-9-9-9-9-9-9-9-9-9-----------|
|--7-7-7-7-7-7-7-7-7-7-7-7-7-7-7-7-----------|

|---------------------------------|
|---------------------------------|
|---------------------------------|
|--7-7-7-7-7-7-7-7-7-7-7-7-7-7-7-7|
|--7-7-7-7-7-7-7-7-7-7-7-7-7-7-7-7|
|--5-5-5-5-5-5-5-5-5-5-5-5-5-5-5-5|
                                  |
   ( I know,    I know)           |
|---------------------------------|
|---------------------------------|
|----6-------6-------6-------6----|
|------7-------7-------7-------7--|
|--------7-------7-------7-------7|
|--5-------5-------5-------5------|


|--------------------------------------------|
|--------------------------------------------|
|--------------------------------------------|
|--9-9-9-9-9-9-9-9-9-9-9-9-9-9-9-9-----------|
|--9-9-9-9-9-9-9-9-9-9-9-9-9-9-9-9-----------|
|--7-7-7-7-7-7-7-7-7-7-7-7-7-7-7-7-----------|
   then let that time be right now           |
                                             |
|--------------------------------------------|
|--------------------------------------------|
|--------------------------------------------|
|--9-9-9-9-9-9-9-9-9-9-9-9-9-9-9-9-----------|
|--9-9-9-9-9-9-9-9-9-9-9-9-9-9-9-9-----------|
|--7-7-7-7-7-7-7-7-7-7-7-7-7-7-7-7-----------|


|---------------------------------|
|---------------------------------|
|---------------------------------|
|--7-7-7-7-7-7-7-7-7-7-7-7-7-7-7-7|
|--7-7-7-7-7-7-7-7-7-7-7-7-7-7-7-7|
|--5-5-5-5-5-5-5-5-5-5-5-5-5-5-5-5|
                                  |
                                  |
|---------------------------------|
|---------------------------------|
|----6-------6-------6-------6----|
|------7-------7-------7-------7--|
|--------7-------7-------7-------7|
|--5-------5-------5-------5------|

Interlude
|------------------|-----------------|
|------------------|-----------------|
|-----8888-99999999|-----8888-9999999|
|-66666666-77777777|-66666666-7777777|
|-4444-------------|-4444------------|
|------------------|-----------------|
 PM**********************************|
                                     |
|------------------|-----------------|
|------------------|-----------------|
|------------------|-6---6---6-------|
|------------------|-x---x---x-------|
|------------------|-4---4---4-------|
|------------------|-----------------|
                   PM*   *   *


|----------------------------|----------------------------------|
|----------------------------|----------------------------------|
|-----8888-99999999----------|-----8888-9999999-----------------|
|-66666666-77777777----------|-66666666-7777777-----------------|
|-4444-----------------------|-4444-----------------------------|
|----------------------------|----------------------------------|
 PM**********************************
 now im standn on the roof top now im standn on the roof top READY TO FALL!
                     |

|----------------------------|-----------------|
|----------------------------|-----------------|
|----------------------------|-6---6---6-------|
|----------------------------|-x---x---x-------|
|----------------------------|-4---4---4-------|
|----------------------------|-----------------|
                             PM*   *   *

Play Chorus

PLay last 2 meassures of chorus 4 times with gang singing ready to fall

Key:
H= harmonic
.= let ring
x= muted
pm***=palm mute
x/= pick slide
/= slide up
\= slide down
comments
print report bad tab
44 comments total. Showing first comments.
0 reply
shugo449 874 wrote on August 9 2006, 12:54 pm

forgive me, i forgot the key, and i re-submitted it with the key.

0 reply
sevenfoldfan235 47 wrote on August 9 2006, 12:59 pm

nice man. ill give you five stars.

0 reply
justin43091 73 wrote on August 9 2006, 02:33 pm

youve got a lot of things ver 1 doesnt have , but think that ver 1 had the intro

I want to post or [tab]
guest
You may want to rate the tab now too:
select rating
Please do not post tabs as comments. Select "correction" instead!