Oops, an error
Loading. Please wait.

Ready To Fall Bass Tab

version 3
version 3
1,931 views 1 this week
no commentswrite comment
1 2 3 4 5
x 3
add to favorites
launch autoscroll
font size
0
reset
guitar tuner
Autoscroll
slow
fast
+/-
esc
set tempo
stop
Help us to improve Ultimate-Guitar.com Take our survey!
×
Author
Difficulty
intermediate
Last time I tabbed this I made some mistakes so I'm fixing it up. I'm 95% sure that this 
right. Otherwise this song is easy except for the bridge/interlude thingy. Note that 
the notes are right, the patterns might not be perfect.

INTRO/CHORUS-
G|------------------------------|x3
D|------------------------------|
A|----4444--------00000000------|
E|----------2222----------------|

G|------------------------------|x1
D|------------------------------|
A|----666--77777-999-777-6------|
E|------------------------------|

VERSE-Here I'll just put each note once. It's easy to figure out the pattern if you 
to the song.
G|------------------------------|x4
D|------------------------------|
A|----4-------------------------|
E|-------2--5--2--5--7----------|

PRE-CHORUS
G|--------------------------------------------------------|
D|--------------------------------------------------------|
A|-555555555555--222222222222--555555555555--777777777777-|
E|--------------------------------------------------------|

G|--------------------------------------------------------|
D|--------------------------------------------------------|
A|-555555555555--222222222222--55555555--7777--4421-------|
E|--------------------------------------------------------|

INTERLUDE
G|-----------------------------------------------------------------------|
D|------------------4-2-1-2-2-4-2-1--2-2-2-2------------1---2---4-2-1----|
A|-2-2-2-2-2-2-2-2---------------------------0-0-0-0--0---0---0----------|
E|-----------------------------------------------------------------------|

G|-----------------------------------------------------------------------|
D|------------------4-2-1-2-2-4-2-1--2-2-2-2------------1---2---4-2-1----|
A|-2-2-2-2-2-2-2-2---------------------------0-0-0-0--0---0---0----------|
E|-----------------------------------------------------------------------|

G|-----------------------------------------------------------------------|
D|------------------4-2-1-2-2-4-2-1--7-7-7-7-7-7-7-7--9-7-6-7-9----------|
A|-2-2-2-2-2-2-2-2----------------------------------------------9-7-6----|
E|-----------------------------------------------------------------------|

G|-----------------------------------------------------------------------|
D|------------------4-2-1-2-2-4-2-1--2-2-2-2----------2------------------|
A|-2-2-2-2-2-2-2-2---------------------------0-0-0-0----0-0-0-0-0-0-0----|
E|-----------------------------------------------------------------------|

LAST CHORUS
G|----------------------------------|x7
D|----------------------------------|
A|--4444--------00000000------------|
E|--------2222----------------------|

G|----------------------------------|x1
D|----------------------------------|
A|--4444----------------------4.....|Let Ring
E|--------2222------7755-7755-------|

ORDER
-------
CHORUS
VERSE
PRE-CHORUS
CHORUS
VERSE
PRECHORUS
CHORUS-on this chorus skip the last part.
INTERLUDE
LAST CHORUS
Suggest correction
Give kudos to tab author, rate the tab!
1 2 3 4 5
comments
print report bad tab
guest
You may want to rate the tab now too:
select rating
Wanna post a correction for this tab? Suggest correction