Oops, an error
Loading. Please wait.

Ready To Fall Tab

version 3
version 3
4,139 views 1 this week
1 commentread comment
1 2 3 4 5
accurate
x 3
add to favorites
launch autoscroll
font size
0
reset
how to read this tab
guitar tuner
Tab Pro tools
  • play this tab
  • loop segment
  • change instrument
  • show fretboard
  • metronome
Autoscroll
slow
fast
+/-
esc
set tempo
stop
Contributor
Difficulty
intermediate
READY TO FALL

Info---
The 2nd guitar is at the botom if anyone wondering,
Both guitars are in standard, and this is my first tab,
I know this is one long tab, and there are some mistakes.
The verse takes some timing so dont rush through it,
play it over a couple of times until it sounds right.





GUITAR 1

Intro/Guitar 1
E||-------------------------------------------------|
B||-------------------------------------------------|
G||-------------------------------------------------|
D||----------4-4-4-4-7-7-7-7-7-7-7-7----------------|
A||-4-4-4-4-----------------------------------------|
E||-------------------------------------------------|
    . . . .  . . . . . . . . . . . .

E||-------------------------------------------------|
B||-------------------------------------------------|
G||----------6-6-6-6-9-9-9-9-9----------------------|
D||----------4-4-4-4-7-7-7-7-7----------------------|
A||-4-4-4-4--------------0-0-0----------------------|
E||----------------------0-0-0----------------------|
    . . . .  . . . . 

Chorus/Guitar 1
E||-------------------------------------------------|
B||-------------------------------------------------|
G||-------------------------------------------------|
D||-6-6-6-6-----------------------------------------| x3
A||-4-4-4-4--4-4-4-4-7-7-7-7-7-7-7-7----------------|
E||----------2-2-2-2-5-5-5-5-5-5-5-5----------------|


E||-------------------------------------------------|
B||-------------------------------------------------|
G||-------------------------------------------------|
D||-------------------------------------------------|
A||-9-9-9-9-9-9-9-9-9-9-9-9-11-11-------------------|
E||-7-7-7-7-7-7-7-7-7-7-7-7-9--9--------------------|


Verse/Guitar 1
E||-------------------------------------------------|
B||-------------------------------------------------|
G||-------------------------------------------------|
D||-------------------------------------------------|
A||-------------------------------------------------|
E||-------------------------------------------------|
Hold on slow down again from the top now,


E||-------------------------------------------------|
B||----------------------9---9----------------------|
G||------------------------9---9---6----------------|
D||------------------------------9------------------|
A||-------------------------------------------------|
E||-------------------------------------------------|
                         . .
and tell me everything


E||-------------------------------------------------|
B||-------------------------------------------------|
G||------------------------------5*-----------------|
D||-------------------------------------------------|
A||-------------------------------------------------|
E||-------------------------------------------------|

I know I've been gone for what seems like forever


E||-------------------------------------------------|
B||-------------------------------------------------|
G||-------------------------------------------------|
D||-----------------------9-11-13-11-9h-11----------|
A||-------------------------------------------------|
E||-------------------------------------------------|

But I'm here now waiting


E||-------------------------------------------------|
B||-------------------------------------------------|
G||-------------------------------------------------|
D||-------------------------------------------------|
A||-------------------------------------------------|
E||-------------------------------------------------|

To convince you that I'm not a ghost or a stranger,


E||-----------------------4---7---------------------|
B||-------------------------5---5-------------------|
G||-------------------------------6-----------------|
D||-------------------------------------------------|
A||-------------------------------------------------|
E||-------------------------------------------------|

But closer than you think


E||-------------------------------------------------|
B||-------------------------------------------------|
G||-------------------------------------------------|
D||-------------------------------------------------|
A||-------------------------------------------------|
E||-------------------------------------------------|

She said, "just go on to what you Pretend is your life


E||-------------------------4-----7-----------------|
B||---------------------------5---------------------|
G||-----------------------------6-------------------|
D||-------------------------------------------------|
A||-------------------------------------------------|
E||-------------------------------------------------|

But Please don't die on me

E||-------------------------------------------------|
B||-------------------------------------------------|
G||-------------------------------------------------|
D||-------------------------------------------------|
A||-7-7-7-7-7-7-7-7-4-4-4-4-4-4-4-4-----------------|
E||-5-5-5-5-5-5-5-5-2-2-2-2-2-2-2-2-----------------|

Wings won't take me


E||-------------------------------------------------|
B||-------------------------------------------------|
G||-------------------------------------------------|
D||-------------------------------------------------|
A||-7-7-7-7-7-7-7-7-9-9-9-9-9-9-9-9-----------------|
E||-5-5-5-5-5-5-5-5-7-7-7-7-7-7-7-7-----------------|

Heights don't phase me


E||-------------------------------------------------|
B||-------------------------------------------------|
G||-------------------------------------------------|
D||-------------------------------------------------|
A||-7-7-7-7-7-7-7-7-4-4-4-4-4-4-4-4-----------------|
E||-5-5-5-5-5-5-5-5-2-2-2-2-2-2-2-2-----------------|

So take a step But don't look down


E||-------------------------------------------------|
B||-------------------------------------------------|
G||-------------------------------------------------|
D||-------------------------------------------------|
A||-7-7-7-7-7-7-7-7-9-9-9-9-9-9-9-9-----------------|
E||-5-5-5-5-5-5-5-5-7-7-7-7-7-7-7-7-----------------|
                      . . .
Take a step


Chorus/ Guitar 1
E||-------------------------------------------------|
B||-------------------------------------------------|
G||-------------------------------------------------|
D||-6-6-6-6-----------------------------------------| x4
A||-4-4-4-4--4-4-4-4-7-7-7-7-7-7-7-7----------------|
E||----------2-2-2-2-5-5-5-5-5-5-5-5----------------|

Now I'm standing on the rooftop ready to fall
I think I'm at the edge now but I could be wrong
I'm standing on the rooftop ready to fall


E||-------------------------------------------------|
B||-------------------------------------------------|
G||-------------------------------------------------|
D||-------------------------------------------------|
A||-9-9-9-9-9-9-9-9-9-9-9-9-11-11-------------------|
E||-7-7-7-7-7-7-7-7-7-7-7-7-9--9--------------------|

Verse/ Guitar 1
E||-------------------------------------------------|
B||-------------------------------------------------|
G||-------------------------------------------------|
D||-------------------------------------------------|
A||-------------------------------------------------|
E||-------------------------------------------------|

Perpetual motion the image won't focus


E||-----------------------4----------------------------|
B||-------------------------5p-------------------------|
G||----------------------------------------------------|
D||----------------------------------------------------|
A||----------------------------------------------------|
E||----------------------------------------------------|

A blur is all that's seen


E||-------------------------------------------------|
B||-------------------------------------------------|
G||-------------------------------------------------|
D||-------------------------------------------------|
A||-------------------------------------------------|
E||-------------------------------------------------|

But here in this moment like the eye of the storm


E||-------------------------------------------------|
B||-------------------------------------------------|
G||-------------------------------------------------|
D||----------------------9-11-13-11-9h-11-----------|
A||-------------------------------------------------|
E||-------------------------------------------------|

It all came clear to me

E||-------------------------------------------------|
B||-------------------------------------------------|
G||-------------------------------------------------|
D||-------------------------------------------------|
A||-------------------------------------------------|
E||-------------------------------------------------|

I found a shoulder to lean on An infallible reason


E||-----------------------4---7---------------------|
B||-------------------------5---5-------------------|
G||-------------------------------6-----------------|
D||-------------------------------------------------|
A||-------------------------------------------------|
E||-------------------------------------------------|

To live all by itself


E||-------------------------------------------------|
B||-------------------------------------------------|
G||-------------------------------------------------|
D||-------------------------------------------------|
A||-------------------------------------------------|
E||-------------------------------------------------|

I took one last look from the heights that I once loved


E||-------------------------4-----7-----------------|
B||---------------------------5---------------------|
G||-----------------------------6-------------------|
D||-------------------------------------------------|
A||-------------------------------------------------|
E||-------------------------------------------------|

And then I ran like hell


E||-------------------------------------------------|
B||-------------------------------------------------|
G||-------------------------------------------------|
D||-------------------------------------------------|
A||-7-7-7-7-7-7-7-7-4-4-4-4-4-4-4-4-----------------|
E||-5-5-5-5-5-5-5-5-2-2-2-2-2-2-2-2-----------------|

Wings won't take me


E||-------------------------------------------------|
B||-------------------------------------------------|
G||-------------------------------------------------|
D||-------------------------------------------------|
A||-7-7-7-7-7-7-7-7-9-9-9-9-9-9-9-9-----------------|
E||-5-5-5-5-5-5-5-5-7-7-7-7-7-7-7-7-----------------|

Heights don't phase me


E||-------------------------------------------------|
B||-------------------------------------------------|
G||-------------------------------------------------|
D||-------------------------------------------------|
A||-7-7-7-7-7-7-7-7-4-4-4-4-4-4-4-4-----------------|
E||-5-5-5-5-5-5-5-5-2-2-2-2-2-2-2-2-----------------|

So take a step But don't look down


E||-------------------------------------------------|
B||-------------------------------------------------|
G||-------------------------------------------------|
D||-------------------------------------------------|
A||-7-7-7-7-7-7-7-7-9-9-9-9-9-9-9-9-----------------|
E||-5-5-5-5-5-5-5-5-7-7-7-7-7-7-7-7-----------------|
                      . . .
Take a step


Chorus/ Guitar 1
E||-------------------------------------------------|
B||-------------------------------------------------|
G||-------------------------------------------------|
D||-6-6-6-6-----------------------------------------| x4
A||-4-4-4-4--4-4-4-4-7-7-7-7-7-7-7-7----------------|
E||----------2-2-2-2-5-5-5-5-5-5-5-5----------------|

Now I'm standing on the rooftop ready to fall
I think I'm at the edge now but I could be wrong
I'm standing on the rooftop ready to fall


Bridge/Guitar 1
E||-------------------------------------------------|
B||-------------------------------------------------|
G||-------------------------------------------------|
D||-------------------------------------------------|
A||-9-9-9-9-9-9-9-9-9-9-9-9-9-9-9-9-----------------|
E||-7-7-7-7-7-7-7-7-7-7-7-7-7-7-7-7-----------------|

I count the times that I've been sorry


E||-------------------------------------------------|
B||-------------------------------------------------|
G||-------------------------------------------------|
D||-------------------------------------------------|
A||-7-7-7-7-7-7-7-7-7-7-7-7-7-7-7-7-----------------|
E||-5-5-5-5-5-5-5-5-5-5-5-5-5-5-5-5-----------------|

I know, I know


E||-------------------------------------------------|
B||-------------------------------------------------|
G||-------------------------------------------------|
D||-------------------------------------------------|
A||-9-9-9-9-9-9-9-9-9-9-9-9-9-9-9-9-----------------|
E||-7-7-7-7-7-7-7-7-7-7-7-7-7-7-7-7-----------------|

Now my compassion slowly drowns


E||-------------------------------------------------|
B||-------------------------------------------------|
G||-------------------------------------------------|
D||-------------------------------------------------|
A||-7-7-7-7-7-7-7-7-7-7-7-7-7-7-7-7-----------------|
E||-5-5-5-5-5-5-5-5-5-5-5-5-5-5-5-5-----------------|

I know, I know


E||-------------------------------------------------|
B||-------------------------------------------------|
G||-------------------------------------------------|
D||-------------------------------------------------|
A||-9-9-9-9-9-9-9-9-9-9-9-9-9-9-9-9-----------------|
E||-7-7-7-7-7-7-7-7-7-7-7-7-7-7-7-7-----------------|

If there's a time these walls could guard you


E||-------------------------------------------------|
B||-------------------------------------------------|
G||-------------------------------------------------|
D||-------------------------------------------------|
A||-7-7-7-7-7-7-7-7-7-7-7-7-7-7-7-7-----------------|
E||-5-5-5-5-5-5-5-5-5-5-5-5-5-5-5-5-----------------|

I know, I know


E||-------------------------------------------------|
B||-------------------------------------------------|
G||-------------------------------------------------|
D||-------------------------------------------------|
A||-9-9-9-9-9-9-9-9-9-9-9-9-9-9-9-9-----------------|
E||-7-7-7-7-7-7-7-7-7-7-7-7-7-7-7-7-----------------|

Then let that time be right now


E||-------------------------------------------------|
B||-------------------------------------------------|
G||-------------------------------------------------|
D||-------------------------------------------------|
A||-7-7-7-7-7-7-7-7-7-7-7-7-7-7-7-7-----------------|
E||-5-5-5-5-5-5-5-5-5-5-5-5-5-5-5-5-----------------|


2nd Bridge/Guitar 1
E||-------------------------------------------------|
B||-------------------------------------------------|
G||---------6-6-6-6-9-9-9-9-9-9-9-9-----------------|
D||-6-6-6-6-4-4-4-4-7-7-7-7-7-7-7-7-----------------|
A||-4-4-4-4-----------------------------------------|
E||-------------------------------------------------|
    . . . . . . . . . . . . . . . .

E||-------------------------------------------------|
B||-------------------------------------------------|
G||---------6-6-6-6-9-9-9-9-9-9-9-9-----------------|
D||-6-6-6-6-4-4-4-4-7-7-7-7-7-7-7-7-----------------|
A||-4-4-4-4-----------------------------------------|
E||-------------------------------------------------|
    . . . . . . . . . . . . . . . .

E||-------------------------------------------------|
B||-------------------------------------------------|
G||---------6-6-6-6-9-9-9-9-9-9-9-9-----------------|
D||-6-6-6-6-4-4-4-4-7-7-7-7-7-7-7-7-----------------|
A||-4-4-4-4-----------------------------------------|
E||-------------------------------------------------|
    . . . . . . . . . . . . . . . .
Now I'm standing on the rooftop

E||-------------------------------------------------|
B||-------------------------------------------------|
G||---------6-6-6-6-9-9-9-9-9-----------------------|
D||-6-6-6-6-4-4-4-4-7-7-7-7-7-----------------------|
A||-4-4-4-4---------------0-0-----------------------|
E||-----------------------0-0-----------------------|
    . . . . . . . . . .
Now I'm standing on the rooftop ready to fall


Chorus/ Guitar 1                        End On
E||-----------------------------------|-----------------|
B||-----------------------------------|-----------------|
G||-----------------------------------|-----------------|
D||-6-6-6-6---------------------------|-6---------------| x8
A||-4-4-4-4--4-4-4-4-7-7-7-7-7-7-7-7--|-4---------------|
E||----------2-2-2-2-5-5-5-5-5-5-5-5--|-----------------|

Now I'm standing on the rooftop ready to fall
I think I'm at the edge now but I could be wrong
I'm standing on the rooftop ready to fall


---------------------------------------------------------------------------
GUITAR 2


Intro/Guitar 2
E||-------------------------------------------------|
B||-------------------------------------------------|
G||-------------------------------------------------|
D||-------------------------------------------------|
A||-------------------------------------------------|
E||-------------------------------------------------|


E||-------------------------------------------------|
B||-------------------------------------------------|
G||---------------------6---6-----------------------|
D||-6-6-6-6---------7-7-7-7-7-----------------------|
A||-4-4-4-4-4-4-4-4-7-7-7-7-7-----------------------|
E||---------2-2-2-2-5-5-5-5-5-----------------------|
    . . . . . . . .

Course/Guitar 2
E||-------------------------------------------------|
B||-------------------------------------------------|
G||-------------------------------------------------|
D||-6-6-6-6-----------------------------------------| x2
A||-4-4-4-4--4-4-4-4-7-7-7-7-7-7-7-7----------------|
E||----------2-2-2-2-5-5-5-5-5-5-5-5----------------|

E||-------------------------------------------------|
B||-------------------------------------------------|
G||-------------------------------------------------|
D||-6-6-6-\-4---------------------------------------| x4
A||-4-4-4-\-2---------------------------------------|
E||-------------------------------------------------|


E||-------------------------------------------------|
B||-------------------------------------------------|
G||-8-8-8-8-9-9-9-9-11-11-11-11-9-9-9-8-\-----------|
D||-x-x-x-x-x-x-x-x-x--x--x--x--x-x-x-x-\-----------|
A||-6-6-6-6-7-7-7-7-9--9--9--9--7-7-7-6-\-----------|
E||-------------------------------------------------|


Verse/Guitar 2
E||-------------------------------------------------|
B||-------------------------------------------------|
G||-------------------------------------------------|
D||-------------------------------------------------|
A||-------------------------------------------------|
E||-------------------------------------------------|

Hold on slow down again from the top now


E||-------------------------------------------------|
B||-------------------------------------------------|
G||-------------------------------------------------|
D||-------------------------------------------------|
A||-------------------------------------------------|
E||-------------------------------------------------|

and tell me everything


E||-------------------------------------------------|
B||-------------------------------------------------|
G||-------------------------------------------------|
D||-------------------------------------------------|
A||-------------------------------------------------|
E||-------------------------------------------------|

know I've been gone for what seems like forever


E||-------------------------------------------------|
B||-------------------------------------------------|
G||-------------------------------------------------|
D||-------------------------------------------------|
A||---------------------P-i-c-k-s-l-i-d-e-----------|
E||-------------------------------------------------|

But I'm here now waiting


E||-------------------------------------------------|
B||-------------------------------------------------|
G||-------------------------------------------------|
D||-------------------------------------------------|
A||-------------------------------------------------|
E||-------------------------------------------------|

To convince you that I'm not a ghost or a stranger


E||-------------------------------------------------|
B||-------------------------------------------------|
G||------------------------6------------------------|
D||------------------------x------------------------|
A||------------------------4------------------------|
E||-------------------------------------------------|

But closer than you think


E||-------------------------------------------------|
B||-------------------------------------------------|
G||-----8-----9-------------------------------------|
D||-----x-----x-------------------------------------|
A||-----6-----7-------------------------------------|
E||-------------------------------------------------|

She said, "just go on to what you Pretend is your life but


E||-------------------------------------------------|
B||-------------------------------------------------|
G||-------------------------------------------------|
D||-------------------------------------------------|
A||-------------------------------------------------|
E||-------------------------------------------------|

Please don't die on me


E||-------------------------------------------------|
B||-------------------------------------------------|
G||-9-9-9-9-9-9-9-9-8-8-8-8-6-6-6-6-----------------|
D||-x-x-x-x-x-x-x-x-x-x-x-x-x-x-x-x-----------------| x3
A||-7-7-7-7-7-7-7-7-6-6-6-6-4-4-4-4-----------------|
E||-------------------------------------------------|

Wings won't take me
Heights don't phase me
So take a step
But don't look down


E||-------------------------------------------------|
B||-------------------------------------------------|
G||-9-9-9-9-9-9-9-9-11-11-11-11-11-11-11-11---------|
D||-x-x-x-x-x-x-x-x-x--x--x--x--x--x--x--x----------|
A||-7-7-7-7-7-7-7-7-9--9--9--9--9--9--9--9----------|
E||-------------------------------------------------|
Take a step


Chorus/Guitar 2
E||-------------------------------------------------|
B||-------------------------------------------------|
G||-------------------------------------------------|
D||-6-6-6-6-----------------------------------------| x3
A||-4-4-4-4-4-4-4-4-7-7-7-7-7-7-7-7-----------------|
E||---------2-2-2-2-5-5-5-5-5-5-5-5-----------------|

Now I'm standing on the rooftop ready to fall
I think I'm at the edge now but I could be wrong


E||-------------------------------------------------|
B||-------------------------------------------------|
G||-------------------------------------------------|
D||-6-6-6-\-4---------------------------------------| x4
A||-4-4-4-\-2---------------------------------------|
E||-------------------------------------------------|

I'm standing on the rooftop ready to fall


E||-------------------------------------------------|
B||-------------------------------------------------|
G||-8-8-8-8-9-9-9-9-11-11-11-11-9-9-9-8-\-----------|
D||-x-x-x-x-x-x-x-x-x--x--x--x--x-x-x-x-\-----------|
A||-6-6-6-6-7-7-7-7-9--9--9--9--7-7-7-6-\-----------|
E||-------------------------------------------------|


Verse/Guitar 2
E||-------------------------------------------------|
B||-------------------------------------------------|
G||-------------------------------------------------|
D||-------------------------------------------------|
A||-------------------------------------------------|
E||-------------------------------------------------|

Perpetual motion the image won't focus


E||-------------------------------------------------|
B||-------------------------------------------------|
G||-------------------------------------------------|
D||-------------------------------------------------|
A||-------------------------------------------------|
E||-------------------------------------------------|

A blur is all that's seen


E||-------------------------------------------------|
B||-------------------------------------------------|
G||-------------------------------------------------|
D||-------------------------------------------------|
A||-------------------------------------------------|
E||-------------------------------------------------|

But here in this moment like the eye of the storm


E||-------------------------------------------------|
B||-------------------------------------------------|
G||-------------------------------------------------|
D||-------------------------------------------------|
A||---------------------P-i-c-k-s-l-i-d-e-----------|
E||-------------------------------------------------|

It all came clear to me


E||-------------------------------------------------|
B||-------------------------------------------------|
G||-------------------------------------------------|
D||-------------------------------------------------|
A||-------------------------------------------------|
E||-------------------------------------------------|

I found a shoulder to lean on An infallible reason


E||----------------------------------------------------|
B||----------------------------------------------------|
G||-6------9-------------------------------------------|
D||-x------x-------------------------------------------|
A||-4------7-------------------------------------------|
E||----------------------------------------------------|

to live all by itself


E||-------------------------------------------------|
B||-------------------------------------------------|
G||-6----8---9--------------------------------------|
D||-x----x---x--------------------------------------|
A||-4----6---7--------------------------------------|
E||-------------------------------------------------|

I took one last look from the heights that I once loved


E||-------------------------------------------------|
B||-------------------------------------------------|
G||-------------------------------------------------|
D||-------------------------------------------------|
A||-------------------------------------------------|
E||-------------------------------------------------|

And then I ran like hell


E||-------------------------------------------------|
B||-------------------------------------------------|
G||-9-9-9-9-9-9-9-9-8-8-8-8-6-6-6-6-----------------|
D||-x-x-x-x-x-x-x-x-x-x-x-x-x-x-x-x-----------------| x3
A||-7-7-7-7-7-7-7-7-6-6-6-6-4-4-4-4-----------------|
E||-------------------------------------------------|

Wings won't take me
Heights don't phase me
So take a step
But don't look down


E||-------------------------------------------------|
B||-------------------------------------------------|
G||-9-9-9-9-9-9-9-9-11-11-11-11-11-11-11-11---------|
D||-x-x-x-x-x-x-x-x-x--x--x--x--x--x--x--x----------|
A||-7-7-7-7-7-7-7-7-9--9--9--9--9--9--9--9----------|
E||-------------------------------------------------|

Take a step

Chorus/Guitar 2
E||-------------------------------------------------|
B||-------------------------------------------------|
G||-------------------------------------------------|
D||-6-6-6-6-----------------------------------------| x3
A||-4-4-4-4-4-4-4-4-7-7-7-7-7-7-7-7-----------------|
E||---------2-2-2-2-5-5-5-5-5-5-5-5-----------------|

Now I'm standing on the rooftop ready to fall
I think I'm at the edge now but I could be wrong


E||-------------------------------------------------|
B||-------------------------------------------------|
G||-------------------------------------------------|
D||-6-6-6-\-4---------------------------------------| x4
A||-4-4-4-\-2---------------------------------------|
E||-------------------------------------------------|

I'm standing on the rooftop ready to fall

Bridge/Guitar 2
E||-------------------------------------------------|
B||-------------------------------------------------|
G||-------------------------------------------------|
D||-----9-------------------------------------------| x4
A||-------7-----------------------------------------|
E||-7-7---------------------------------------------|

I count the times that I've been sorry


E||-------------------------------------------------|
B||-------------------------------------------------|
G||-------------------------------------------------|
D||-----7-------------------------------------------| x4
A||-------5-----------------------------------------|
E||-5-5---------------------------------------------|

I know, I know


E||-------------------------------------------------|
B||-------------------------------------------------|
G||-------------------------------------------------|
D||-----9-------------------------------------------| x4
A||-------7-----------------------------------------|
E||-7-7---------------------------------------------|

Now my compassion slowly drowns


E||-------------------------------------------------|
B||-------------------------------------------------|
G||-------------------------------------------------|
D||-----7-------------------------------------------| x4
A||-------5-----------------------------------------|
E||-5-5---------------------------------------------|

I know, I know


E||-------------------------------------------------|
B||-------------------------------------------------|
G||-------------------------------------------------|
D||-----9-------------------------------------------| x4
A||-------7-----------------------------------------|
E||-7-7---------------------------------------------|

If there's a time these walls could guard you


E||-------------------------------------------------|
B||-------------------------------------------------|
G||-------------------------------------------------|
D||-----7-------------------------------------------| x4
A||-------5-----------------------------------------|
E||-5-5---------------------------------------------|

I know, I know


E||-------------------------------------------------|
B||-------------------------------------------------|
G||-------------------------------------------------|
D||-----9-------------------------------------------| x4
A||-------7-----------------------------------------|
E||-7-7---------------------------------------------|

Then let that time be right now


E||-------------------------------------------------|
B||-------------------------------------------------|
G||-------------------------------------------------|
D||-----7-------------------------------------------| x4
A||-------5-----------------------------------------|
E||-5-5---------------------------------------------|


Bridge 2/Guitar 2
E||-------------------------------------------------|
B||-------------------------------------------------|
G||-------------------------------------------------|
D||-------------------------------------------------|
A||-------------------------------------------------|
E||-------------------------------------------------|

Now I'm standing on the rooftop


E||-------------------------------------------------|
B||-------------------------------------------------|
G||-------------------------------------------------|
D||-------------------------------------------------|
A||-------------------------------------------------|
E||-------------------------------------------------|

Now I'm standing on the rooftop ready to fall

Chorus/Guitar 2
E||-------------------------------------------------|
B||-------------------------------------------------|
G||-------------------------------------------------|
D||-6-6-6-6-----------------------------------------| x3
A||-4-4-4-4-4-4-4-4-7-7-7-7-7-7-7-7-----------------|
E||---------2-2-2-2-5-5-5-5-5-5-5-5-----------------|

Now I'm standing on the rooftop ready to fall
I think I'm at the edge now but I could be wrong

                    End On
E||----------------|---------------------------------------|
B||----------------|---------------------------------------|
G||----------------|---------------------------------------|
D||-6-6-6-\-4------|-6-------------------------------- x16-|
A||-4-4-4-\-2------|-4-------------------------------------|
E||----------------|---------------------------------------|

I'm standing on the rooftop ready to fall






Pickslide = Pickslide
Slide Down = \
Pull Off = p
Hammer On = h
Palm Mute = .
Harmonic = *
comments
We did not receive enough feedback on this tab! Please rate:
print report bad tab
1 2 3 4 5
1 comment total.
0 reply
raven_gekko wrote on July 15 2008, 06:14 pm

Just so everyone knows, I learned this song from this tab, and it sounds fine. I wouldn't say great, because I had to fix a lot of errors, but if you're halfway decent they were easy to fix.

Decent job.

I want to post or [tab]
guest
You may want to rate the tab now too:
select rating
Please do not post tabs as comments. Select "correction" instead!