Oops, an error
Loading. Please wait.

Ready To Fall Tab

version 4
version 4
15,463 views 1 this week
no commentswrite comment
1 2 3 4 5
excellent!
x 7
add to favorites
launch autoscroll
font size
0
reset
how to read this tab
guitar tuner
Tab Pro tools
  • play this tab
  • loop segment
  • change instrument
  • show fretboard
  • metronome
×
Best way to learn
"Ready To Fall"
Autoscroll
slow
fast
+/-
esc
set tempo
stop
Contributor
Difficulty
SO, this is my version of Ready to Fall by Rise Against, rhythm and lead guitar.  
It is all my own interpretation of the song.  Verse 1 I copied almost directly 
from version 2 but needed to change a few things. I needed to make a few changes 
to all the other parts too, so im making this tab.  
ENJOY :D:D:D:D:D:D

Rise Against - Ready To Fall
Tuning: Standard
Song Difficulty: Somewhere between Novice and Intermediate.

Legend

PM= Palm Mute
~~= SUSTAINED 
1= Guitar 1 (Lead)
2= Guitar 2 (Rhythm)
H= NATURAL HARMONIC

INTRO

|-------------------------------|-----------------------------|
|-------------------------------|-----------------------------|
|-------------------------------|-----------------6-6-6-6-6---|
|-------------------------------|-----------------7-7-7-7-7---|   1
|-4-4-4-4-----------------------|-4-4-4-4---------7-7-7-7-7---|
|--------2-2-2-2-5-5-5-5-5-5-5-5|---------2-2-2-2-5-5-5-5-5---|
PM***********************************************             |
                                                      |
|-------------------------------|-----------------------------|
|-------------------------------|-----------------------------|
|-------------------------------|-----------------------------|
|-------------------------------|-----------------------------|   2
|-------------------------------|-----------------------------|
|-------------------------------|-----------------------------|

CHORUS
|--------------------------------|--------------------------------|
|--------------------------------|--------------------------------|
|-6-6-6-6------------------------|-6-6-6-6------------------------|  1
|-6-6-6-6-4-4-4-4-7-7-7-7-7-7-7-7|-6-6-6-6-4-4-4-4-7-7-7-7-7-7-7-7|
|-4-4-4-4-4-4-4-4-7-7-7-7-7-7-7-7|-4-4-4-4-4-4-4-4-7-7-7-7-7-7-7-7|
|---------2-2-2-2-5-5-5-5-5-5-5-5|---------2-2-2-2-5-5-5-5-5-5-5-5|
                                                                  |
                                                                  |
|--------------------------------|--------------------------------|
|--------------------------------|--------------------------------|
|-6-6-6-6------------------------|-6-6-6-6------------------------|
|-6-6-6-6-4-4-4-4-7-7-7-7-7-7-7-7|-6-6-6-6-4-4-4-4-7-7-7-7-7-7-7-7|  2
|-4-4-4-4-4-4-4-4-7-7-7-7-7-7-7-7|-4-4-4-4-4-4-4-4-7-7-7-7-7-7-7-7|
|---------2-2-2-2-5-5-5-5-5-5-5-5|---------2-2-2-2-5-5-5-5-5-5-5-5|

|--------------------------------|---------------------------|
|--------------------------------|---------------------------|
|-666-4/6-666-4/6-666-4/6-666-4/6|-8888-9999-11111111-9-4-6~~|
|-666-4/6-666-4/6-666-4/6-666-4/6|-xxxx-xxxx-x-x-x-x--x-x-x~~|     1
|-444-2/4-444-2/4-444-2/4-444-2/4|-6666-7777-9-9-9-9--7-2-4~~|
|--------------------------------|---------------------------|

|--------------------------------|--------------------------------------|
|--------------------------------|--------------------------------------|
|-6-6-6-6------------------------|--------------------------------------|
|-6-6-6-6-4-4-4-4-7-7-7-7-7-7-7-7|-9-9-9-9-9-9-9-9-9-9-9-9-9-9-9-11~~~--|  
|-4-4-4-4-4-4-4-4-7-7-7-7-7-7-7-7|-9-9-9-9-9-9-9-9-9-9-9-9-9-9-9-11~~~--|
|---------2-2-2-2-5-5-5-5-5-5-5-5|-7-7-7-7-7-7-7-7-7-7-7-7-7-7-7-9-~~~--|

VERSE
|--------------------------------------------|
|--------------------------------------------|
|--------------------------------------------|
|--------------------------------------------|  1
|--------------------------------------------|
|--------------------------------------------|
  hold on, slow down, again from the top now,|
                                             |
|--------------------------------------------|
|--------------------------------------------|  2
|--------------------------------------------|
|--------------------------------------------|
|--------------------------------------------|
|--------------------------------------------|


                        
|-------------------------4---4-----|-------------------------------|
|---------------------------5---6---|-------------------------------|
|---------------------------------6~|-------------------------------|  1
|-----------------------------------|-------------------------------|
|-----------------------------------|-------------------------------|
|-----------------------------------|-------------------------------|
  and tell me everything.            I know I've been gone, for what|
                                                           H        |
|-----------------------------------|-------------------------------|
|-----------------------------------|----------------------5~~------|
|---------------------------------6~|-------------------------------|  2
|---------------------------------x~|-------------------------------|
|---------------------------------4~|-------------------------------|
|-----------------------------------|-------------------------------|

|-----------------------------------|--------------------|
|-----------------------------------|----------2/4\2p0~~-|
|-----------------------------------|--------------------|  1
|-----------------------------------|--------------------|
|-----------------------------------|--------------------|
|-----------------------------------|--------------------|
  seems like forever, but here I'm now waiting.          |
                                                         |
|-----------------------------------|--------------------|
|-----------------------------------|--------------------|
|-----------------------------------|--------------------|  2
|-----------------------------------|--------------------|
|-----------------------------------|----------------x/--|
|-----------------------------------|----------------x/--| (Pickslide)

|---------------------------------------------------|
|---------------------------------------------------|
|---------------------------------------------------|  1
|---------------------------------------------------|
|---------------------------------------------------|
|---------------------------------------------------|
  To covince you that i'm not a ghost or a stranger,|
                                                    |
|---------------------------------------------------|
|---------------------------------------------------|
|-6~~-----------------------------------------------|
|-x~~-----------------------------------------------|  2
|-4~~-----------------------------------------------|
|---------------------------------------------------|

|---------------------------4---7---|--------------------------------|
|-----------------------------5---5-|--------------------------------|
|----------------------------------6|--------------------------------|
|-----------------------------------|--------------------------------|  1
|-----------------------------------|--------------------------------|
|-----------------------------------|--------------------------------|
  but closer than you think.          She Said, "Just go on with what|
                                                                     |
|-----------------------------------|--------------------------------|
|-----------------------------------|--------------------------------|
|-----------------------------------|----------6~~-------------------|  2
|-----------------------------------|----------x~~-------------------|
|-----------------------------------|----------4~~-------------------|
|-----------------------------------|--------------------------------|

|------------------------------------------------------4---7~|
|-------------------------------------------------------5----|
|--------------------------------------------------------6---|  1
|------------------------------------------------------------|
|------------------------------------------------------------|
|------------------------------------------------------------|
  you pretend is your life but please don't die on me!"      |
                                                             |
|------------------------------------------------------------|
|------------------------------------------------------------|
|-------8~~-------------------9.~~---------------------------|  2
|-------x~~-------------------x.~~---------------------------|
|-------6~~-------------------7.~~---------------------------|
|------------------------------------------------------------|

PRE-CHORUS
|------------------------------------------------------------|
|------------------------------------------------------------|
|-9-9999-9-9999-8-8888-6-6666-9-9999-9-9999-8-8888-6-6666----|
|-x-xxxx-x-xxxx-x-xxxx-x-xxxx-x-xxxx-x-xxxx-x-xxxx-x-xxxx----|  1
|-7-7777-7-7777-6-6666-4-4444-7-7777-7-7777-6-6666-4-4444----|
|------------------------------------------------------------|

|------------------------------------------------------------|
|------------------------------------------------------------|
|------------------------------------------------------------|
|-7-7777-777777-4-4444-444444-7-7777-777777-9-9999-9-9999----|  2
|-7-7777-777777-4-4444-444444-7-7777-777777-9-9999-9-9999----|
|-5-5555-555555-2-2222-222222-5-5555-555555-7-7777-7-7777----|

|------------------------------------------------------------|
|------------------------------------------------------------|
|-9-9999-9-9999-8-8888-6-6666-9-9999-9-9999-4--4-4-4-4-4-4---|
|-x-xxxx-x-xxxx-x-xxxx-x-xxxx-x-xxxx-x-xxxx-4--4-4-4-4-4-4---|
|-7-7777-7-7777-6-6666-4-4444-7-7777-7-7777-2--2-2-2-2-2-2---|
|------------------------------------------------------------|

|------------------------------------------------------------|
|------------------------------------------------------------|
|------------------------------------------------------------|
|-7-7777-777777-4-4444-444444-7-7777-777777-9--9-9-9-9-9-9---|  2
|-7-7777-777777-4-4444-444444-7-7777-777777-9--9-9-9-9-9-9---|
|-5-5555-555555-2-2222-222222-5-5555-555555-7--7-7-7-7-7-7---|


(PLAY CHORUS)

VERSE 2 (LITTLE BIT DIFFERENT THAN VERSE 1)

VERSE
|--------------------------------------------|
|--------------------------------------------|
|--------------------------------------------|
|--------------------------------------------|  1
|--------------------------------------------|
|--------------------------------------------|
  Perpetual Motion, the image won't focus
                                             |
|--------------------------------------------|
|--------------------------------------------|
|--------------------------------------------|  2
|--------------------------------------------|
|--------------------------------------------|
|--------------------------------------------|


                        
|-----------------------------4-----|-------------------------------|
|-------------------------------5---|-------------------------------|
|---------------------------------6~|-------------------------------|  1
|-----------------------------------|-------------------------------|
|-----------------------------------|-------------------------------|
|-----------------------------------|-------------------------------|
  a blur is all thats seen.           But here in this moment like the
                                                             
|-----------------------------------|-------------------------------|
|-----------------------------------|-------------------------------|
|---------------------------------6-|-------------------------------|  2
|---------------------------------x-|-------------------------------|
|---------------------------------4-|-------------------------------|
|-----------------------------------|-------------------------------|

|-----------------------------------|--------------------|
|-----------------------------------|----------2/4\2p0---|
|-----------------------------------|--------------------|  1
|-----------------------------------|--------------------|
|-----------------------------------|--------------------|
|-----------------------------------|--------------------|
  eye of a storm it all came clear to me        
                                                         |
|-----------------------------------|--------------------|
|-----------------------------------|--------------------|
|-----------------------------------|--------------------|  2
|-----------------------------------|--------------------|
|-----------------------------------|----------------x/--|
|-----------------------------------|----------------x/--|

|---------------------------------------------------|
|---------------------------------------------------|
|---------------------------------------------------|
|---------------------------------------------------|  1
|---------------------------------------------------|
|---------------------------------------------------|
  I found a shoulder to lean on, an infallible reason 
                                                    |
|---------------------------------------------------|
|---------------------------------------------------|
|-----------------------------------6~~-------------|  2
|-----------------------------------x~~-------------|
|-----------------------------------4~~-------------|
|---------------------------------------------------|

|-------------------------4------7~~-|--------------------------------|
|---------------------------5--------|--------------------------------|
|-----------------------------6------|--------------------------------|  1
|------------------------------------|--------------------------------|
|------------------------------------|--------------------------------|
|------------------------------------|--------------------------------|
  to live all by itself.               I took one last look from the 
|------------------------------------|--------------------------------|
|------------------------------------|--------------------------------|
|----6~~-----------------------------|--------------------------------|
|----x~~-----------------------------|--------------------------------|  2
|----4~~-----------------------------|--------------------------------|
|------------------------------------|--------------------------------|

|------------------------------------------------------4---7~|
|-------------------------------------------------------5----|
|--------------------------------------------------------6---|
|------------------------------------------------------------|  1
|------------------------------------------------------------|
|------------------------------------------------------------|
  heights that I once loved, and then I ran like hell!!!!!!!!!    
                                                             |
|------------------------------------------------------------|
|------------------------------------------------------------|
|-------8.~~------------------9.~~---------------------------| 2
|-------x.~~------------------x.~~---------------------------|
|-------6.~~------------------7.~~---------------------------|
|------------------------------------------------------------|

(PLAY PRE-CHORUS)
(PLAY CHORUS)

BRIDGE

|------------------------------------------------------|
|------------------------------------------------------|
|------------------------------------------------------|  1
|-----4-----4-----4-----4--------6-----6-----6-----6---|
|---6---6-----6-----6----------4---4-----4-----4-------|
|-7-------7-----7-----7------5-------5-----5-----5-----|

|---------------------------------|
|---------------------------------|
|---------------------------------|
|-9-9-9-9-9-9-9-9-9-9-9-9-9-9-9-9-|  2
|-9-9-9-9-9-9-9-9-9-9-9-9-9-9-9-9-|
|-7-7-7-7-7-7-7-7-7-7-7-7-7-7-7-7-|


|---------------------------------|
|---------------------------------|
|---------------------------------|
|-7-7-7-7-7-7-7-7-7-7-7-7-7-7-7-7-|  2
|-7-7-7-7-7-7-7-7-7-7-7-7-7-7-7-7-|
|-5-5-5-5-5-5-5-5-5-5-5-5-5-5-5-5-|

Repeat all of the above as much as necessary

INTERLUDE
|--------------------------------------------|  Repeat as much as necessary
|--------------------------------------------|  (Lead Guitar Only!!!!!!!!!)
|--------------------------------------------|
|--------------------------------------------|
|-4-4-4-4------------------------------------|
|---------2-2-2-2-5-5-5-5-5-5-5-5------------|
PM*******************************

OUTRO

(PLAY CHORUS AS MUCH AS NECESSARY)

END OF SONG
comments
print report bad tab
I want to post or [tab]
guest
You may want to rate the tab now too:
select rating
Please do not post tabs as comments. Select "correction" instead!