Oops, an error
Loading. Please wait.

Reception Fades Bass Tab

version 2
version 2

Whole song

Interactive

314 views 1 this week
1 commentread comment
1 2 3 4 5
please rate
add to favorites
launch autoscroll
font size
0
reset
guitar tuner
Autoscroll
slow
fast
+/-
esc
set tempo
stop
Help us to improve Ultimate-Guitar.com Take our survey!
×
Author
Difficulty
Song: Reception Fades
Band: Rise Against
Album: The Unraveling
Bassist: Joe Principe

INTRO

G|-----------------|-----------------|-----------------|-----------------|
D|-----------------|-----------------|-----------------|-----------------|
A|-----------------|-----------------|-----------------|-----------------|
E|-4-4-4-4-4-4-4-4-|-4-4-4-4-4-4-4-4-|-0-0-0-0-0-0-0-0-|-2-2-2-2-2-2-2---|
   1 + 2 + 3 + 4 +   1 + 2 + 3 + 4 +   1 + 2 + 3 + 4 +   1 + 2 + 3 + 4 +

G|-------------------------|-------------------------|-----------------|-----------------|
D|-------------------------|-------------------------|-9-9-9-9-9-9-9-9-|-8-8-8-8-8-8-8-8-|
A|-11-11-11-11-11-11-13-13-|-14-14-13-13-11-11-9--9--|-----------------|-----------------|
E|-------------------------|-------------------------|-----------------|-----------------|
   1  +  2  +  3  +  4  +    1  +  2  +  3  +  4  +    1 + 2 + 3 + 4 +   1 + 2 + 3 + 4 +

G|-----------------|-----------------|-----------------|-----------------|
D|-----------------|-----------------|-----------------|-----------------|
A|-----------------|-----------------|-----------------|-----------------|
E|-4-4-4-4-4-4-4-4-|-4-4-4-4-4-4-4-4-|-0-0-0-0-0-0-0-0-|-2-2-2-2-2-2-2---|
   1 + 2 + 3 + 4 +   1 + 2 + 3 + 4 +   1 + 2 + 3 + 4 +   1 + 2 + 3 + 4 +

G|-----------------|-----------------|-----------------|-----------------||
D|-----------------|-----------------|-----------------|-----------------||
A|-----------------|-----------------|-7---------------|-----------------||
E|-4-4-4-4-4-4-4-4-|-4-4-4-4-4-4-4-4-|-----------------|-----------------||
   1 + 2 + 3 + 4 +   1 + 2 + 3 + 4 +   1 + 2 + 3 + 4 +   1 + 2 + 3 + 4 +

VERSE

G|-----------------|-----------------|-----------------|-----------------|
D|-----------------|-----------------|-----------------|-----------------|
A|-----------------|-----------------|-2-2-2-2---------|-4-4-4-4-6-6-6-6-|
E|-4-4-4-4-4-4-0-0-|-4-4-4-4-4-4-0-0-|---------2-2-2-2-|-----------------|
   1 + 2 + 3 + 4 +   1 + 2 + 3 + 4 +   1 + 2 + 3 + 4 +   1 + 2 + 3 + 4 +

G|-----------------|-----------------|-----------------|-----------------||
D|-----------------|-----------------|-----------------|-----------------||
A|-----------------|-----------------|-2-2-2-2---------|-4-4-4-4-6-6-6-6-||
E|-4-4-4-4-4-4-0-0-|-4-4-4-4-4-4-0-0-|---------2-2-2-2-|-----------------||
   1 + 2 + 3 + 4 +   1 + 2 + 3 + 4 +   1 + 2 + 3 + 4 +   1 + 2 + 3 + 4 +

CHORUS

G|-----------------|-----------------|-----------------|-----------------|
D|-----------------|-----------------|-6-6-6-6-6-6-6-6-|-9-8---6---9---9-|
A|-7-7-7-7-7-7-7-7-|-7-7-7-7-7-7-9-9-|-----------------|-----------------|
E|-----------------|-----------------|-----------------|-----------------|
   1 + 2 + 3 + 4 +   1 + 2 + 3 + 4 +   1 + 2 + 3 + 4 +   1 + 2 + 3 + 4 +

G|-----------------|-----------------|-----------------|-----------------|
D|-----------------|-------------9-9-|-6-6-6-6-6-6-6-6-|-9-8---6---------|
A|-7-7-7-7-7-7-7-7-|-7-7-7-7-7-7-----|-----------------|-----------9---9-|
E|-----------------|-----------------|-----------------|-----------------|
   1 + 2 + 3 + 4 +   1 + 2 + 3 + 4 +   1 + 2 + 3 + 4 +   1 + 2 + 3 + 4 +

G|-----------------|-----------------|-----------------|-----------------|
D|-----------------|-----------------|-6-6-6-6-6-6-6-6-|-9-8---6---9---9-|
A|-7-7-7-7-7-7-7-7-|-7-7-7-7-7-7-9-9-|-----------------|-----------------|
E|-----------------|-----------------|-----------------|-----------------|
   1 + 2 + 3 + 4 +   1 + 2 + 3 + 4 +   1 + 2 + 3 + 4 +   1 + 2 + 3 + 4 +

G|-----------------|-----------------|-----------------|-----------------||
D|-----------------|-9-9-9-9---------|-6-6-6-6-6-6-6-6-|-6---------------||
A|-7-7-7-7-7-7-7-7-|---------9-9-9-9-|-----------------|-----------------||
E|-----------------|-----------------|-----------------|-----------------||
   1 + 2 + 3 + 4 +   1 + 2 + 3 + 4 +   1 + 2 + 3 + 4 +   1 + 2 + 3 + 4 +

VERSE

G|-----------------|-----------------|-----------------|-----------------|
D|-----------------|-----------------|-----------------|-----------------|
A|-----------------|-----------------|-2-2-2-2---------|-4-4-4-4-6-6-6-6-|
E|-4-4-4-4-4-4-0-0-|-4-4-4-4-4-4-0-0-|---------2-2-2-2-|-----------------|
   1 + 2 + 3 + 4 +   1 + 2 + 3 + 4 +   1 + 2 + 3 + 4 +   1 + 2 + 3 + 4 +

G|-----------------|-----------------|-----------------|-----------------||
D|-----------------|-----------------|-----------------|-----------------||
A|-----------------|-----------------|-2-2-2-2---------|-4-4-4-4-6-6-6-6-||
E|-4-4-4-4-4-4-0-0-|-4-4-4-4-4-4-0-0-|---------2-2-2-2-|-----------------||
   1 + 2 + 3 + 4 +   1 + 2 + 3 + 4 +   1 + 2 + 3 + 4 +   1 + 2 + 3 + 4 +

CHORUS

G|-----------------|-----------------|-----------------|-----------------|
D|-----------------|-----------------|-6-6-6-6-6-6-6-6-|-9-8---6---9---9-|
A|-7-7-7-7-7-7-7-7-|-7-7-7-7-7-7-9-9-|-----------------|-----------------|
E|-----------------|-----------------|-----------------|-----------------|
   1 + 2 + 3 + 4 +   1 + 2 + 3 + 4 +   1 + 2 + 3 + 4 +   1 + 2 + 3 + 4 +

G|-----------------|-----------------|-----------------|-----------------|
D|-----------------|-------------9-9-|-6-6-6-6-6-6-6-6-|-9-8---6---------|
A|-7-7-7-7-7-7-7-7-|-7-7-7-7-7-7-----|-----------------|-----------9---9-|
E|-----------------|-----------------|-----------------|-----------------|
   1 + 2 + 3 + 4 +   1 + 2 + 3 + 4 +   1 + 2 + 3 + 4 +   1 + 2 + 3 + 4 +

G|-----------------|-----------------|-----------------|-----------------|
D|-----------------|-----------------|-6-6-6-6-6-6-6-6-|-9-8---6---9---9-|
A|-7-7-7-7-7-7-7-7-|-7-7-7-7-7-7-9-9-|-----------------|-----------------|
E|-----------------|-----------------|-----------------|-----------------|
   1 + 2 + 3 + 4 +   1 + 2 + 3 + 4 +   1 + 2 + 3 + 4 +   1 + 2 + 3 + 4 +

G|-----------------|-----------------|-----------------|-----------------||
D|-----------------|-9-9-9-9---------|-6-6-6-6-6-6-6-6-|-6---------------||
A|-7-7-7-7-7-7-7-7-|---------9-9-9-9-|-----------------|-----------------||
E|-----------------|-----------------|-----------------|-----------------||
   1 + 2 + 3 + 4 +   1 + 2 + 3 + 4 +   1 + 2 + 3 + 4 +   1 + 2 + 3 + 4 +

INTERLUDE

G|-----------------|-----------------|-----------------|-----------------|
D|-----------------|-----------------|-----------------|-----------------|
A|-------------6---|-7\\\------------|-----------------|-----------------|
E|-0-0-0-0-0-0-----|-----------------|-----------------|-----------------|
   1 + 2 + 3 + 4 +   1 + 2 + 3 + 4 +   1 + 2 + 3 + 4 +   1 + 2 + 3 + 4 +

G|-----------------|-----------------|-----------------||
D|-----------------|-----------------|-----------------||
A|-----------------|-----------------|-------------9---||
E|-----------------|-----------------|-----------------||
   1 + 2 + 3 + 4 +   1 + 2 + 3 + 4 +   1 + 2 + 3 + 4 +

BRIDGE

G|-----------------|-----------------|-----------------|-----------------|
D|-----------------|-----------------|-----------------|-----------------|
A|-7-7-7-7-7-7-----|-------------6---|-7-7-7-7-7-7-----|-------------9---|
E|-------------7-7-|-4-4-4-4-4-4-----|-------------7-7-|-4-4-4-4-4-4-----|
   1 + 2 + 3 + 4 +   1 + 2 + 3 + 4 +   1 + 2 + 3 + 4 +   1 + 2 + 3 + 4 +

G|-----------------|-----------------|-----------------|-----------------|
D|-----------------|-----------------|-----------------|-----------------|
A|-7-7-7-7-7-7-----|-------------6---|-7-7-7-7-7-7-----|-------------9---|
E|-------------7-7-|-4-4-4-4-4-4-----|-------------7-7-|-4-4-4-4-4-4-----|
   1 + 2 + 3 + 4 +   1 + 2 + 3 + 4 +   1 + 2 + 3 + 4 +   1 + 2 + 3 + 4 +

G|-----------------|-----------------|-----------------|-----------------|
D|-----------------|-------------8---|-9-9-9-9-9-9-9-9-|-6-6-6-6-6-6/11--|
A|-7-7-7-7-7-7-----|-----------------|-----------------|-----------------|
E|-------------7-7-|-4-4-4-4-4-4-----|-----------------|-----------------|
   1 + 2 + 3 + 4 +   1 + 2 + 3 + 4 +   1 + 2 + 3 + 4 +   1 + 2 + 3 + 4 +

G|-----------------|-----------------|-----------------|-----------------|
D|-9-9-9-9-9-9-9-9-|-6-6-6-6-6-6/8---|-9-9-9-9-9-9-9-9-|-6-6-6-6-6-6/11--|
A|-----------------|-----------------|-----------------|-----------------|
E|-----------------|-----------------|-----------------|-----------------|
   1 + 2 + 3 + 4 +   1 + 2 + 3 + 4 +   1 + 2 + 3 + 4 +   1 + 2 + 3 + 4 +

G|-----------------|-----------------|-----------------|-----------------||
D|-----------------|-----------------|-6-6-6-6---------|-----------------||
A|-7-7-7-7-2-2-2-2-|-6-6-6-6-2-2-2-2-|---------9-7-6---|-----------------||
E|-----------------|-----------------|---------------7-|-4---------------||
   1 + 2 + 3 + 4 +   1 + 2 + 3 + 4 +   1 + 2 + 3 + 4 +   1 + 2 + 3 + 4 +









Suggest correction
What's this?
You can suggest a correction to this tab. Community and Mods will review your correction and vote to approve or reject it.
comments
We did not receive enough feedback on this tab! Please rate:
print report bad tab
1 2 3 4 5
1 comment total.
0 reply
chromaticvision 4,961 wrote on April 25 2011, 07:29 pm

Me playing this at: http://www.youtube.com/watch?v=UPV8Kb9TEy8

guest
You may want to rate the tab now too:
select rating
Please do not post tabs as comments. Select "correction" instead!