Oops, an error
Loading. Please wait.

Reception Fades Bass Tab

version 3
version 3

Whole song

Interactive

793 views 3 this week
no commentswrite comment
1 2 3 4 5
x 3
add to favorites
launch autoscroll
font size
0
reset
guitar tuner
×
Best way to learn
"Reception Fades"
Autoscroll
slow
fast
+/-
esc
set tempo
stop
Author
Difficulty
  follow
intermediate
Arite so this song is great, there is nothing wrong with it at all, and there's no good 
tabs out there for it so I decided to make one.
I did my best and i think most of it should be accurate, a lot better than other 
ones there are lol

Song: Reception Fades
Artist: Rise Against
Album: The Unraveling
Tuning: Standard Tuning
Tabbed by: Steven Lee Turner (e-mail: nevets585@optonline.net)

Intro
G|-----------------------------------------------------------------|
D|-----------------------------------------------------------------|
A|--------------------------------------------------2-2--------1-1-|
E|-14/slide-4-4-4-4-4-4-6-6-7-7-6-6-4-4-2-2-0-0-0-0---- 2-2-2-2----|

G|---------------------------------------------------|
D|-6-6-6-6-6-6-8-8-9-9-8-8-6-6-4-4-99999-99-88888-88-|
A|---------------------------------------------------|
E|---------------------------------------------------|

G|-----------------------------------------------------------------|
D|-----------------------------------------------------------------|
A|--------------------------------------------------2-2--------1-1-|
E|-14/slide-4-4-4-4-4-4-6-6-7-7-6-6-4-4-2-2-0-0-0-0---- 2-2-2-2----|

G|----------------------------------------------|
D|----------------------------------------------|
A|----------------------------------------------|
E|-4-4-4-4-4-4-6-6-7-7-6-6-4-4-2-2-0------------|

Verse
G|--------------------------------------------------------|
D|--------------------------------------------------------|
A|---------------------2-2-2-2---------4-4-4-4-6-6-6-6----|
E|-4-4-4-000-4-4-4-000---------2-2-2-2--------------------|

Chorus
G|-----------------------------------------------------------------|
D|---------------------------------6-6-6-6-6-6-6-6-----9-8-6-9-----|
A|-7-7-7-7-7-7-7-7-7-7-7-7-7-7-9-9---------------------------------|
E|-----------------------------------------------------------------|

G|-----------------------------------------------------------------|
D|---------------------------------6-6-6-6-6-6-6-6-----9-8-6-4-----|
A|-7-7-7-7-7-7-7-7-7-7-7-7-7-7-9-9---------------------------------|
E|-----------------------------------------------------------------|

G|-----------------------------------------------------------------|
D|---------------------------------6-6-6-6-6-6-6-6-----9-8-6-9-----|
A|-7-7-7-7-7-7-7-7-7-7-7-7-7-7-9-9---------------------------------|
E|-----------------------------------------------------------------|

G|---------------------------------------------------------------------|
D|---------------------------------6-6-6-6-6-6-6-6---------------------|
A|-7-7-7-7-7-7-7-7-9-9-9-9-9-9-9-9-------------------------------------|
E|-----------------------------------------------------00000-0-0-0-0---|
^play the verse+chorus twice

Bridge
G|-------------|
D|-------------|
A|-------------|
E|-0-0-0-0-0-0-|

G|----------------------------------------------------------------------|
D|----------------------------------------------------------------------|
A|-6-7(short guitar riff)-9-7-7-7-7-7-7-----------------6-6-7-7-7-7-7-7-|
E|--------------------------------------7-7-4-4-4-4-4-4-----------------|

G|---------------------------------------------------------------------|
D|---------------------------------------------------------------------|
A|-----------------9-9-7-7-7-7-7-7-----------------6-6-7-7-7-7-7-7-----|
E|-7-7-4-4-4-4-4-4-----------------7-7-4-4-4-4-4-4-----------------7-7-|

G|---------------------------------------------------------------------------|
D|---------------------------------------------8-9-9-9-9-9-9-8-8-6-6-6-6-6-6-|
A|-------------9-9-7-7-7-7-7-7-----------------------------------------------|
E|-4-4-4-4-4-4-----------------7-7-4-4-4-4-4-4-------------------------------|

G|---------------------------------------------------------------------|
D|-8-8-9-9-9-9-9-9-8-8-6-6-6-6-6-6-8-8-9-9-9-9-9-9-8-8-6-6-6-6-6-6-8-8-|
A|---------------------------------------------------------------------|
E|---------------------------------------------------------------------|

G|-8-8-8-8---------8-8-8-8----------------------------------------|
D|---------8-8-8-8---------8-8-8-8--------------------------------|
A|----------------------------------------------------------------|
E|---------------------------------4-4-4-4-4-4-4-4-4/slide--------|

and thats it!
im still new to bass so maybe i missed some notes that are obvious to some, so comments 
corrections are accepted, just e-mail me, cuz i want the best tab for this song to be 
there because its awesome! lol
Suggest correction
Give kudos to tab author, rate the tab!
1 2 3 4 5
comments
print report bad tab
guest
You may want to rate the tab now too:
select rating
Wanna post a correction for this tab? Suggest correction