Oops, an error
Loading. Please wait.

Remains Of Summer Memories Bass Tab

version 1
version 1

Whole song

Interactive

233 views 1 this week
1 commentread comment
1 2 3 4 5
please rate
add to favorites
launch autoscroll
font size
0
reset
guitar tuner
Tab Pro tools
  • play this tab
  • loop segment
  • change instrument
  • show fretboard
  • metronome
Autoscroll
slow
fast
+/-
esc
set tempo
stop
Contributor
Difficulty
Song: Remains of Summer Memories                            
Album: The Unraveling
Band: Rise Against
Bassist: Joe Principe

Intro
   
G|-----------------||
D|-----------------||
A|-----------------||
E|-----------------||
   1 + 2 + 3 + 4 +

VERSE

G|-----------------|-----------------|-----------------|-----------------|
D|-----------------|-----------------|-----------------|-----------------|
A|-----------------|---------5-5---5-|-----------------|---------5-5---5-|
E|-5-5---5-5-5---5-|-3-3---3---------|-5-5---5-5-5---5-|-3-3---3---------|
   1 + 2 + 3 + 4 +   1 + 2 + 3 + 4 +   1 + 2 + 3 + 4 +   1 + 2 + 3 + 4 + 

G|-----------------|-----------------|-----------------|-----------------|
D|-----------------|-----------------|-----------------|-----------------|
A|-----------------|---------5-5---5-|-----------------|---------5-5---5-|
E|-5-5---5-5-5---5-|-3-3---3---------|-5-5---5-5-5---5-|-3-3---3---------|
   1 + 2 + 3 + 4 +   1 + 2 + 3 + 4 +   1 + 2 + 3 + 4 +   1 + 2 + 3 + 4 + 

CHORUS

G|-----------------|-----------------|-----------------|-----------------|
D|-----------------|-----------------|-----------------|-----------------|
A|-----------------|-----------------|-----------------|-----------------|
E|-0-0---0---0-0-0-|-0-0---0---0-0-0-|-0-0---0---0-0-0-|-0-0---0---0-0-0-|
   1 + 2 + 3 + 4 +   1 + 2 + 3 + 4 +   1 + 2 + 3 + 4 +   1 + 2 + 3 + 4 + 

G|-----------------|-----------------|-----------------|-----------------||
D|-----------------|-----------------|-----------------|-----------------||
A|-----------------|-----------------|-3--3--3-3--3--3-|-5--5--5-5-------||
E|-0-0---0---0-0-0-|-0-0---0---0-0-0-|-----------------|-----------------||
   1 + 2 + 3 + 4 +   1 + 2 + 3 + 4 +   1 + 2 + 3 + 4 +   1 + 2 + 3 + 4 + 

VERSE

G|-----------------|-----------------|-----------------|-----------------|
D|-----------------|-----------------|-----------------|-----------------|
A|-----------------|---------5-5---5-|-----------------|---------5-5---5-|
E|-5-5---5-5-5---5-|-3-3---3---------|-5-5---5-5-5---5-|-3-3---3---------|
   1 + 2 + 3 + 4 +   1 + 2 + 3 + 4 +   1 + 2 + 3 + 4 +   1 + 2 + 3 + 4 + 

G|-----------------|-----------------|-----------------|-----------------|
D|-----------------|-----------------|-----------------|-----------------|
A|-----------------|---------5-5---5-|-----------------|---------5-5---5-|
E|-5-5---5-5-5---5-|-3-3---3---------|-5-5---5-5-5---5-|-3-3---3---------|
   1 + 2 + 3 + 4 +   1 + 2 + 3 + 4 +   1 + 2 + 3 + 4 +   1 + 2 + 3 + 4 + 

CHORUS

G|-----------------|-----------------|-----------------|-----------------|
D|-----------------|-----------------|-----------------|-----------------|
A|-----------------|-----------------|-----------------|-----------------|
E|-0-0---0---0-0-0-|-0-0---0---0-0-0-|-0-0---0---0-0-0-|-0-0---0---0-0-0-|
   1 + 2 + 3 + 4 +   1 + 2 + 3 + 4 +   1 + 2 + 3 + 4 +   1 + 2 + 3 + 4 + 

G|-----------------|-----------------|-----------------|-----------------||
D|-----------------|-----------------|-----------------|-----------------||
A|-----------------|-----------------|-3--3--3-3--3--3-|-5--5--5-5--5--5-||
E|-0-0---0---0-0-0-|-0-0---0---0-0-0-|-----------------|-----------------||
   1 + 2 + 3 + 4 +   1 + 2 + 3 + 4 +   1 + 2 + 3 + 4 +   1 + 2 + 3 + 4 + 

BRIDGE

G|-----------------|-----------------|-----------------|-----------------|
D|-----------------|-----------------|-----------------|-----------------|
A|-7---------------|-5-5-5-5---5-5-5-|-3-3-3-3---7-7---|-5-5-5-5---5-5-5-|
E|-----0-----0-0---|-----------------|-----------------|-----------------|
   1 + 2 + 3 + 4 +   1 + 2 + 3 + 4 +   1 + 2 + 3 + 4 +   1 + 2 + 3 + 4 + 

G|-----------------|-----------------|-----------------|-----------------|
D|-----------------|-----------------|-----------------|-----------------|
A|-7-7-------------|-5-5-5-5---5-5-5-|-3-3-3-333-3-3-33|-5-5-5-5---------|
E|-----0-----0-0-0-|-----------------|-----------------|---------3---2---|
   1 + 2 + 3 + 4 +   1 + 2 + 3 + 4 +   1 + 2 + 3 + 4 +   1 + 2 + 3 + 4 + 

G|-----------------|-----------------|-----------------|-----------------|
D|-----------------|-----------------|-----------------|-----------------|
A|-7---------------|-5-5-5-5---5-5-5-|-3-3-3-3---7-7---|-5-5-5-5---5-5-5-|
E|-----0-----0-0---|-----------------|-----------------|-----------------|
   1 + 2 + 3 + 4 +   1 + 2 + 3 + 4 +   1 + 2 + 3 + 4 +   1 + 2 + 3 + 4 + 

G|-----------------|-----------------|-----------------|-----------------|
D|-----------------|-----------------|-----------------|-----------------|
A|-7-7-------------|-5-5-5-5---5-5-5-|-3-3-3-333-3-3-33|-5-5-5-5---------|
E|-----0-----0-0-0-|-----------------|-----------------|---------3---2---|
   1 + 2 + 3 + 4 +   1 + 2 + 3 + 4 +   1 + 2 + 3 + 4 +   1 + 2 + 3 + 4 + 

INTERLUDE


G|-----------------|-----------------|-----------------|-----------------|
D|-----------------|-----------------|-----------------|-----------------|
A|-----------------|-----------------|-----------------|-----------------|
E|-0---------------|-----------------|-----------------|-------------7///|
   1 + 2 + 3 + 4 +   1 + 2 + 3 + 4 +   1 + 2 + 3 + 4 +   1 + 2 + 3 + 4 + 

G|-----------------|-----------------|-----------------|-----------------|
D|-----------------|-----------------|-----------------|-----------------|
A|-----------------|-----------------|-3-3---3-3-3---3-|-5-5---5-5-5---5-|
E|-12--------------|-----------------|-----------------|-----------------|
   1 + 2 + 3 + 4 +   1 + 2 + 3 + 4 +   1 + 2 + 3 + 4 +   1 + 2 + 3 + 4 + 

G|-----------------|-----------------|-----------------|-----------------|
D|-----------------|-----------------|-----------------|-----------------|
A|-----------------|-----------------|-----------------|-----------------|
E|-0-0---0---0-0-0-|-0-0---0---0-0-0-|-0-0---0---0-0-0-|-0-0---0---0-0-0-|
   1 + 2 + 3 + 4 +   1 + 2 + 3 + 4 +   1 + 2 + 3 + 4 +   1 + 2 + 3 + 4 + 

G|-----------------|-----------------|-----------------|-----------------|
D|-----------------|-----------------|-----------------|-----------------|
A|-----------------|-----------------|-3-3---3-3-3---3-|-5-5---5---------|
E|-0-0---0---0-0-0-|-0-0---0---0-0-0-|-----------------|---------3---2---|
   1 + 2 + 3 + 4 +   1 + 2 + 3 + 4 +   1 + 2 + 3 + 4 +   1 + 2 + 3 + 4 + 

G|-----------------||
D|-----------------||
A|-----------------||
E|-0---------------||
   1 + 2 + 3 + 4 +  

comments
We did not receive enough feedback on this tab! Please rate:
print report bad tab
1 2 3 4 5
1 comment total.
0 reply
chromaticvision wrote on April 25 2011, 07:28 pm

Me playing this at: http://www.youtube.com/watch?v=G0q8Gj4UvLc

I want to post or [tab]
guest
You may want to rate the tab now too:
select rating
Please do not post tabs as comments. Select "correction" instead!