Oops, an error
Loading. Please wait.

Restless World tab

154 views 12 this week
no commentswrite comment
1 2 3 4 5
3 more votes to show rating
add to favorites
×
Save as Personal and add changes to this tab that will be seen only by you. Learn more ›
×
You can save this tab as Personal to edit and correct it or add notes. All changes will be seen only by you. Learn more »
launch autoscroll
font size
0
reset
how to read this tab
guitar tuner
edit
Autoscroll
slow
fast
+/-
esc
set tempo
stop
About this tab version
A tab based off an unknown song (Restless World) played live by Rise Against on the Revival Tour. Was this info helpful? Yes No
Unknown Song (Restless World) From Revival Tour - https://www.youtube.com/watch?v=mVRT562Gu-Q
Capo on the 1st Fret
Notes: 
-Tim tunes his guitar to half step down and puts a capo on the 2nd fret

[Chords]
Em 022000
G  320033
C  x32010
D  xx0232

[Intro]
  Em G C G C G C D (x2)
e|----------------------------------|----------------------------------|
B|------3-------3-------3-------3---|------3-------3---3---------------|
G|----0---0---0---0---0---0---0---0-|----0---0---0---0-0---------------|
D|-0h2------4-----------------------|--2-------4-------2---------------|
A|------------------3-------3-------|------------------3---------------|
E|----------------------------------|----------------------------------|

[Verse 1]
  I fell for the bait...
  And a whisper like..
e|----------------------------------|----------------------------------|
B|------3-------3-------3-------3---|------3-------3-------3-------3---|
G|----0---0---0---0---0---0---0---0-|----0---0---0---0---0---0---0---0-|
D|-0h2------4-----------------------|--2-------4-----------------------|
A|------------------3-------3-------|------------------3-------3-------| 
E|----------------------------------|----------------------------------|

  And upon these stones...
  A message like a stranger...
e|----------------------------------|----------------------------------|
B|------3-------3-------3-------3---|------3-------3---3---------------|
G|----0---0---0---0---0---0---0---0-|----2---2---2---2-2---------------|
D|--2-------4-----------------------|--0-------0-------0---------------|
A|------------------3-------2-------|----------------------------------| (x2)
E|----------------------------------|----------------------------------|

[Pre-Chorus 1]
  In the night...
e|----------------------------------|----------------------------------|
B|------3-------3-------3-------3---|------3-------3-------3-------3---|
G|----0---0---0---0---0---0---0---0-|----0---0---0---0---0---0---0---0-|
D|----------------------------------|----------------------------------|
A|------------------3-------3-------|------------------3-------3-------| 
E|--0-------3-----------------------|--0-------3-----------------------|

  Each breath slower...
e|----------------------------------|--2---------------0---------------|
B|------3-------3-------3-------3---|--2---------------2---------------|
G|----0---0---0---0---0---0---0---0-|--0---------------2---------------|
D|----------------------------------|--2---------------2---------------|
A|--------------------------0-------|--3---------------0---------------| 
E|--0-------2-------3---------------|----------------------------------|
                                     (Listen to the song for strumming)

[Chorus 1]                 
     Em                 G
We can almost hear the choir
     C                   G
Echoing down streets on fire
                C               G          C            D
Singing, "Keep calm, restless world, this too shall pass."

           Em            G
Are we all failures in disguise?
         C                   G
For the dream we brought to life,
        C                 G
From behind our name in lights
      C      D
Our shadows cast...
But will they last?

e|----------------------------------|----------------------------------|
B|------3-------3-------3-------3---|------3-------3---3---------------|
G|----0---0---0---0---0---0---0---0-|----0---0---0---0-0---------------|
D|--2-------4-----------------------|--2-------4-------2---------------|
A|------------------3-------3-------|------------------3---------------|
E|----------------------------------|----------------------------------|

[Verse 2]
  It's not that I don't...
  So I can breathe...
e|----------------------------------|----------------------------------|
B|------3-------3-------3-------3---|------3-------3-------3-------3---|
G|----0---0---0---0---0---0---0---0-|----0---0---0---0---0---0---0---0-|
D|-0h2------4-----------------------|--2-------4-----------------------|
A|------------------3-------3-------|------------------3-------3-------| 
E|----------------------------------|----------------------------------|

  If we could just stay...
  When these lakes were...
e|----------------------------------|----------------------------------|
B|------3-------3-------3-------3---|------3-------3---3---------------|
G|----0---0---0---0---0---0---0---0-|----2---2---2---2-2---------------|
D|--2-------4-----------------------|--0-------0-------0---------------|
A|------------------3-------2-------|----------------------------------| (x2)
E|----------------------------------|----------------------------------|

[Pre-Chorus 2]

  'Cause we are but...
e|----------------------------------|----------------------------------|
B|------3-------3-------3-------3---|------3-------3-------3-------3---|
G|----0---0---0---0---0---0---0---0-|----0---0---0---0---0---0---0---0-|
D|----------------------------------|----------------------------------|
A|------------------3-------3-------|------------------3-------3-------| 
E|--0-------3-----------------------|--0-------3-----------------------|

  But there's contempt...
e|----------------------------------|--2---------------0---------------|
B|------3-------3-------3-------3---|--2---------------2---------------|
G|----0---0---0---0---0---0---0---0-|--0---------------2---------------|
D|----------------------------------|--2---------------2---------------|
A|--------------------------0-------|--3---------------0---------------| 
E|--0-------2-------3---------------|----------------------------------|
                                     (Listen to the song for strumming)

[Chorus 2] 
     Em                 G
We can almost hear the choir
     C                   G
Echoing down streets on fire
                C               G          C            D
Singing, "Keep calm, restless world, this too shall pass."

  
           Em            G
Are we all failures in disguise?
         C                   G
For the dream we brought to life,
        C                 G
From behind our name in lights
      C      D
Our shadows cast...

[Bridge]
  And feet don't fail me now...
e|-----------------|--7-------5------|-----------------|--3--------------|
B|--3--------------|--8-------7------|--12------10-----|--3--------------|
G|--0--------------|--9-------7------|--12------11-----|--0--------------|
D|--2--------------|-----------------|-----------------|--0--------------|
A|--3--------------|-----------------|-----------------|--2--------------| 
E|-----------------|-----------------|-----------------|--3--------------|

  Waiting somewhere down...
e|-----------------|--3--------------|--0--------------|--0--------------|
B|--1--------------|--3--------------|--0--------------|--0--------------|
G|--0--------------|--0--------------|--0--------------|--0--------------|
D|--2--------------|--0--------------|--2--------------|--2--------------|
A|--3--------------|--2--------------|--2--------------|--2--------------| 
E|-----------------|--3--------------|--0--------------|--0--------------|

  And lungs please don't give out...
e|-----------------|--7-------5------|-----------------|--3--------------|
B|--3--------------|--8-------7------|--12------10-----|--3--------------|
G|--0--------------|--9-------7------|--12------11-----|--0--------------|
D|--2--------------|-----------------|-----------------|--0--------------|
A|--3--------------|-----------------|-----------------|--2--------------| 
E|-----------------|-----------------|-----------------|--3--------------|

  And until they're heard...
e|-----------------|--2--------------|--3--------------|--3--------------|
B|--1--------------|--3--------------|--3--------------|--3--------------|
G|--0--------------|--2--------------|--0--------------|--0--------------|
D|--2--------------|--0--------------|--0--------------|--0--------------|
A|--3--------------|-----------------|--2--------------|--2--------------| 
E|-----------------|-----------------|--3--------------|--3--------------|
 (Listen to the song for strumming)

[Outro]
  I fell for the bait again... 
e|----------------------------------|----------------------------------|
B|------3-------3-------3-------3---|------3-------3---3---------------|
G|----0---0---0---0---0---0---0---0-|----0---0---0---0-0---------------|
D|--2-------4-----------------------|--2-------4-------2---------------|
A|------------------3-------3-------|------------------3---------------|
E|----------------------------------|----------------------------------|

************************************

| h  Hammer-on

************************************

            
            
Suggest correction
Creating personal tab
Creating personal tab
You can edit any tab online and save it as your Personal.

You can edit, replace or remove any tab part or add personal notes – all changes will be seen only by you.

Personal tabs can be accessed anytime from any device, even offline.
Learn more »
Give kudos to tab author, rate the tab!
1 2 3 4 5
comments
print report bad tab
guest
You may want to rate the tab now too:
select rating
Wanna post a correction for this tab? Suggest correction