Oops, an error
Loading. Please wait.

Roadside Bass Tab

version 1
version 1

Whole song

Interactive

2,738 views 1 this week
no commentswrite comment
1 2 3 4 5
accurate
x 3
add to favorites
launch autoscroll
font size
0
reset
guitar tuner
Tab Pro tools
  • play this tab
  • loop segment
  • change instrument
  • show fretboard
  • metronome
×
Best way to learn
"Roadside"
Autoscroll
slow
fast
+/-
esc
set tempo
stop
Contributor
Difficulty
novice
Rise Against- Roadside Bass Tab
By: Jeremy Katz

I'm not entirely sure, but I think this is how the song is played. The rhythms are not exact.

  Intro
|---------------------------------|
|---------------------------------|
|--4--4-----2--2-----0--0--0--0h2-|x2
|---------------------------------|


  Verse
|-------------------------------|
|-------------------------------|
|--4--2--0--2---4-4--2--0--0h2--|x2
|-------------------------------|


  PreChorus
|-------------|
|-------------|
|--0--2--4--4-|x4
|-------------|


  Chorus x2
|--------------|
|--------------|
|--4-4-6-4-2-0-|
|--------------|

|--------------|
|--------------|
|--4---6-4-2-0-|
|--------------|

|------------------|
|------------------|
|-0h2--4---6-4-2-0-|x2
|------------------|


  PreChorus


  Bridge
|----------------------------------|
|----------------------------------|
|--4-4-----2-2-----0-0-----2-2-----|
|----------------------------------|

|-------------------|
|-------------------|
|--4--2--0-4\0--/12-|
|-------------------|

  Chorus x2


  PreChorus

  Outro
|----------|
|----------|
|--4--2--0-|
|----------|
comments
We did not receive enough feedback on this tab! Please rate:
print report bad tab
1 2 3 4 5
I want to post or [tab]
guest
You may want to rate the tab now too:
select rating
Please do not post tabs as comments. Select "correction" instead!