Oops, an error
Loading. Please wait.

Roadside Tab

version 1
version 1

Whole song

Interactive

171,509 views 141 this week
32 commentsread comments
1 2 3 4 5
excellent!
x 62
add to favorites
launch autoscroll
font size
0
reset
how to read this tab
guitar tuner
Tab Pro tools
  • play this tab
  • loop segment
  • change instrument
  • show fretboard
  • metronome
Autoscroll
slow
fast
+/-
esc
set tempo
stop
Contributor
Band: Rise Against
Song: Roadside
Tuning: Standard (EADGBe)

Ok, here’s the deal, I’m a drummer that self taught myself how to play the guitar, I’ve
been playing for a little over a year and a half, and this is my first tab, so if you
be a fag, and post comment that don’t help and just say this sucks or is all wrong, I 
want them, but if your gunna help me make this tab better, because I know its not
right, and it’s a sick song that I think everyone should learn, then post away. Thanks…

INTRO (guitar1)
|----------------------------|
|---4-2----4-2----2-0--------|
|-------------------------1--|
|---------------------2-4----| x2
|--4-4----2-2----0-0-0-0-2---|
|----------------------------|

INTRO (guitar2)
|-------------------0---|
|-----------------------|
|------4-1--------------|
|-----2-----------------| (play after 1 time through guitar1 intro)
|--2h4------------------|
|-----------------------|

VERSE (guitar1, and guitar2 if you feel like it)
|--4---4---0---4----4--4----------7---------0----------4-----|
|--5---4---2---4-----5--5/7----4----------2---------4---4----|
|--6---4---2---4----------------4--4p2---2-2-2-------4---4---|
|--6---4---2---4------------------------------2-------4---4--| x2
|--4---2---0---2---4—4-------2----------0------0h2-----------|
|----------0-------------------------------------------------|

PRE-CHORUS (guitar1)
|--------------------------------------|
|---2------------4-------5---4---5-----|
|----2---2-----4---4---6--6---6---6----|
|-----2-2-2--4--------6-6--6---6---6---| x4
|--0---0----2-2-2-2--4------4---4---4--|
|--------------------------------------|

PRE-CHORUS (guitar2)
|--0--0-002--2-224--4-444--4-44--|
|--2--2-222--2-225--5-555--5-55--|
|--2--2-224--4-446--6-666--6-66--|
|--2--2-224--4-446--6-666--6-66--| x4 (not sure if the b cord should be
|--0--0-002--2-224--4-444--4-44--|    x24422 or x24444, w/e sounds
|--0--0-00-----------------------|    best to you. also strum out the
                                      last note more on the 4th time)
CHORUS (guitar1)
|-------------------------------------|
|------5----------------5-------5555--|
|-------6-6--------------6-6----6666--|
|--------6----------------6-----6666--| x4 (I’m pretty sure the rhythm
|--4444----44444444-4444----4444------|    might change after the 2nd
|-------------------------------------|    time but I don’t know)

CHORUS (guitar2)
|------|
|------|
|--66--|
|--66--| play that palm muted a whole bunch of times
|--44--|
|------|

POST-CHORUS
Same thing as pre-chorus

BRIDGE (guitar1)
Just simply play the intro twice

BRIDGE (guitar2)
|------------------------------------|
|------------------------------------|
|--66666666444444442222222244444444--|
|--66666666444444442222222244444444--| x2
|--44444444222222220000000022222222--|
|------------------------------------|
pm . . . . . . . . . . . . . . . . .

Then guitar2 plays a four bar break of simply
|------------------------------------|
|------------------------------------|
|--66666666666666666666666666666666--|
|--66666666666666666666666666666666--|
|--44444444444444444444444444444444--|
|------------------------------------|
pm . . . . . . . . . . . . . . . . .

PLAY CHORUS AGAIN

ENDING (both guitars)
|--0--0-002--2-224--4-444--4-44--|
|--2--2-222--2-225--5-555--5-55--|
|--2--2-224--4-446--6-666--6-66--|
|--2--2-224--4-446--6-666--6-66--| x2 then after two times the
|--0--0-002--2-224--4-444--4-44--|    strumming changes a little and
|--0--0-00-----------------------|    plays one time through to the end
comments
print report bad tab
32 comments total. Showing first comments.
+4 reply
Gary_76849 wrote on July 20 2006, 07:26 pm

good tab in the fact that you did it in standard...you might have found it easier if you tuned a half-step down though as Rise Against does (Eb, Ab, Db, Gb, Bb, eb) but good work!!!

+6 reply
paintindablack wrote on July 21 2006, 12:00 am

I've only been playing guitar for two years and I am also self taught. I have no prior musical experience, so my opinion doesn't carry much weight, but i think you did a good job and it sounds good. I'm impressed.

0 reply
bobbynogo wrote on July 30 2006, 02:50 pm

might have made some parts easier if you used bar chords instead of this type of thing:

VERSE (guitar1, and guitar2 if you feel like it)
|--4---4---0---4----4--4----------7---------0----------4-----|
|--5---4---2---4-----5--5/7----4----------2---------4---4----|
|--6---4---2---4----------------4--4p2---2-2-2-------4---4---|
|--6---4---2---4------------------------------2-------4---4--| x2
|--4---2---0---2---4?4-------2----------0------0h2-----------|
|----------0-------------------------------------------------|




but at least they are the right notes, i commend you for this tab.

I want to post or [tab]
guest
You may want to rate the tab now too:
select rating
Please do not post tabs as comments. Select "correction" instead!