Oops, an error
Loading. Please wait.

Roadside Bass Tab

version 2
version 2

Whole song

Interactive

420 views 3 this week
no commentswrite comment
1 2 3 4 5
please rate
add to favorites
launch autoscroll
font size
0
reset
guitar tuner
Tab Pro tools
  • play this tab
  • loop segment
  • change instrument
  • show fretboard
  • metronome
Autoscroll
slow
fast
+/-
esc
set tempo
stop
Contributor
Difficulty
intermediate
Not the actual bassline, just something I made up using the guitar tabs.
I know Rise Against using play half a step down, but this makes more 
sense played in standard tuning.

Artist: Rise Against
Song: Roadside
Tuning: Standard  


INTRO

G[-------------------------1~-----|-------------------------1~-----]
D[---------------------2-4--------|---------------------2-4~-------]
A[4-4-----2-2-----0-0-0-0-2-------|4-4-----2-2-----0-0-0-0---------]
E[--------------------------------|--------------------------------]


VERSE

G[--------------------------------|------------4p2--------------4--]
D[--------------------------------|------------------------------4-] REPEAT 
A[4~------2~------0~------2~------|4-4~----2~------0~------0h2-----]   x2
E[--------------------------------|--------------------------------]


PRE-CHORUS

G[-----2------4-4-----6---6---6---]
D[----2-2--------------6---6---6--] REPEAT 
A[0~-0----2~---2--4~----4---4---4-]   x4
E[--------------------------------]


CHORUS

G[-----6-6-------------6-6----6666]
D[------6---------------6---------] REPEAT 
A[4444----444444444444----4444----]   x4
E[--------------------------------]


REPEAT PRE-CHORUS (x3 INSTEAD OF x4)


BRIDGE PT.1 - REPEAT INTRO


BRIDGE PT.2

G[--------------------------------]
D[--------------------------------]
A[4(x16)---------/16(x16)---------]
E[--------------------------------]


REPEAT CHORUS (x4)


OUTRO

G[--------------------------------|         
D[--------------------------------| REPEAT  
A[--------2---2-224---4-444---4-44|   x3    
E[0---0-00------------------------|         

G|--------------------------------]
D|--------------------------------]
A|--------2---2-2-4~~-------------]
E|0---0-0-------------------------]


Awesome song, tab seems to fit well when I play it. 
Any constructive feedback feel free to message me.
comments
We did not receive enough feedback on this tab! Please rate:
print report bad tab
1 2 3 4 5
I want to post or [tab]
guest
You may want to rate the tab now too:
select rating
Please do not post tabs as comments. Select "correction" instead!