Oops, an error
Loading. Please wait.

Roadside Tab

version 3
version 3

Whole song

Interactive

3,491 views 3 this week
1 commentread comment
1 2 3 4 5
please rate
add to favorites
launch autoscroll
font size
0
reset
how to read this tab
guitar tuner
Tab Pro tools
  • play this tab
  • loop segment
  • change instrument
  • show fretboard
  • metronome
×
Best way to learn
"Roadside"
Autoscroll
slow
fast
+/-
esc
set tempo
stop
Contributor
Difficulty
Tuning
intermediate
D# G# C# F# A# D#
Rise Against - Roadside - The sufferer and the witness

Tuning: half step down (Eb, Ab, Db, Gb, Bb, Eb)
Capo: none


Here's my version of Rise Against's Roadside. I took some ideas from the tab by "IFiwasSKIing...".
Enjoy it, please rate/comment.


Chords
     Dm C  Bb 	
Eb|--1--0--1--|
Bb|--3--1--1--|
Gb|--2--0--3--|
Db|--0--2--3--|
Ab|-----3-----|
Eb|-----------|

Chords for the Verse (Guitar 1)
     Dm C  A  Bb 
Eb|--5--5--0--1--|
Bb|--5--5--0--1--|
Gb|--7--3--2--3--|
Db|--7--3--2--3--|
Ab|--------------|
Eb|--------------|

Intro x2

Guitar 1
Eb|----0------|----0------|------------------------|	|---------------0--|
Bb|--------3--|--------3--|----3---1---------------|	|------------------|
Gb|-----------|-----------|----------------0----2--|	|--------4-1-------|
Db|--0---0----|-----------|------------3-----------|	|----1-2-----------|
Ab|-----------|--3---3----|--1---1---1---1----3----|	|--4---------------|
Eb|-----------|-----------|------------------------|	|------------------|
                                                     Guitar 2 (2nd time)

Vers 1

Guitar 1 (riff 1)
Eb|----5----5------|--------8-------|----------1-----------|---------5----------|
Bb|-------6---6/8--|----5------5/3--|------3---------------|-----5-----5---5----|
Gb|----------------|------5---------|----3---3---3---------|-------5-----5---5--|
Db|----------------|----------------|--------------3-------|--------------------|
Ab|--5---5---------|--3-------------|--1--------------1/---|--/3----------------|
Eb|----------------|----------------|----------------------|--------------------|


Guitar 2 (Chords above)

Dm                C		  
Tell me what I'm s'posed to do, 
A                   Bb              Dm   C
With all these leftover feelings of you,		riff 1
               Bb    C
'Cause I don't know,

And tell me how I'm s'posed to feel,                          
When all these nightmares become real,			riff 1
'Cause I don't know,


Pre-Chorus

Guitar 1

Eb|-------------------|------------0--------|----------1--------|--0--------1--------|
Bb|----3--------------|--------1-------1----|------3-----3------|----3--------3------|
Gb|------3-------3----|----0----------------|----2---2-----2----|------2--------2----|
Db|--------3---3---3--|---------------------|--0-------------0--|--------0--------0--|
Ab|--1-------1--------|--3---3---3---3---3--|-------------------|--------------------|
Eb|-------------------|---------------------|-------------------|--------------------|

Guitar 2 (Chords above)

       Bb          C           Dm                      			
And I don't think, you see the places inside me that I find you,
       Bb          C     Dm                               
And I don't know, how we separate the lies here from the truth,
       Bb          C     Dm                                 Bb
And I don't know, how we woke up one day somehow thought we knew,
C                  Dm
Exactly what we're supposed to do.


Chorus

Guitar 1

Eb|--5-5-5-5--5--------5-5-5-5-5-5-5-5-5--5--------5-5-5-5-5-5-5-5--|
Bb|--6-6-6-6----8-6-5--5-5-5-5-5-5-5-5-6----8-6-8--8-8-8-8-8-8-8-8--|
Gb|--7-7-7-7-----------5-5-5-5-5-5-5-5-7-----------5-5-5-5-5-5-5-5--|
Db|--7-7-7-7-----------7-7-7-7-7-7-7-7-7-----------7-7-7-7-7-7-7-7--|
Ab|--5-5-5-5-----------5-5-5-5-5-5-5-5-5-----------5-5-5-5-5-5-5-5--|
Eb|-----------------------------------------------------------------|
pm     . . .           . . . . . . . .             . . . . . . . .  		 

Guitar 2 (Chords above)

    Dm    C         Bb  C
So leave me, at the Roadside,
    Dm    C         Bb  C
And hang me, up and out to dry,
    Dm    C         Bb  C
So leave me, at the Roadside,
    Dm    C         Bb  C
And hang me, up and out to dry,


Pre-Chorus 2

Guitar 1

Eb|-------------------|------------0--------|----------1--------|--0--------1--------|
Bb|----3--------------|--------1-------1----|------3-----3------|----3--------3------|
Gb|------3-------3----|----0----------------|----2---2-----2----|------2--------2----|
Db|--------3---3---3--|---------------------|--0-------------0--|--------0--------0--|
Ab|--1-------1--------|--3---3---3---3---3--|-------------------|--------------------|
Eb|-------------------|---------------------|-------------------|--------------------|

Guitar 2 (Chords above)

       Bb          C           Dm                      
And I don't think, you see the places inside me that I find you,
       Bb          C     Dm                                 Bb
And I don't know, how we woke up one day somehow thought we knew,
C                  Dm
Exactly what we're supposed to do.


Interlude: 
Guitar 1: Intro
Guitar 2  mutes Dm
          

Chorus

Outro (Pre-Chorus 2)

both Guitars

       Bb          C           Dm                      
And I don't think, you see the places inside me that I find you,
       Bb          C     Dm                                 Bb
And I don't know, how we woke up one day somehow thought we knew,
C                  Dm		  	Bb	
Exactly what we're supposed to do.

  C             Dm
Exactly what to do.
comments
We did not receive enough feedback on this tab! Please rate:
print report bad tab
1 2 3 4 5
1 comment total.
0 reply
mamuschka wrote on December 4 2013, 01:45 pm

It sould be Am instead of A - I think.

I want to post or [tab]
guest
You may want to rate the tab now too:
select rating
Please do not post tabs as comments. Select "correction" instead!