Oops, an error
Loading. Please wait.

Rumors Of My Demise Have Been Greatly Exaggerated Bass Tab

version 1
version 1

Whole song

Interactive

4,085 views 21 this week
1 commentread comment
1 2 3 4 5
excellent!
x 5
add to favorites
launch autoscroll
font size
0
reset
guitar tuner
Autoscroll
slow
fast
+/-
esc
set tempo
stop
Help us to improve Ultimate-Guitar.com Take our survey!
×
Author
Difficulty
intermediate
Tabbed by Jamie Harris
Tuning 1/2 step down + Drop D

Intro
---------------------------------------|
---------------------------------------|
---------------------------------------|
-11-11-9h11p9-4--4-4-4/7--7-7-7/9--9-9-| x 4

Verse same as intro just palm muted

Pre-chorus
---------------------------------|
---------------------------------|
-0-0-0-0-0-0-0-0-----------------|
-----------------4-4-4-4-4-4-4-4-| x 3

---------------------------------|
---------------------------------|
-0-0-0-0-0-0-0-0-2-2-2-2-2-2-2-2-|
---------------------------------|

Chorus
--------------------------------------------------------------------|
----------------------------------------4-6-7-6-4-------------------|
-------------------2-2-2-2-2-2-2-2--4-7-----------7-----------------|
-2-2-2-2-2-2-2-2-2----------------------------------7-7-7-7-7-7-7-7-| x 2

Then play all that through again

Bridge
------|
------|
------|
-4--4-|

-------------------------------|
-------------------------------|
-------------------------------|
-2-4-4---2-4-4---2-0-0---0-2-2-| x 2

-------------------------------------------------------------------|
-------------------------------------------------------------------|
-------------------------------------------------------------------|
-2-4-4-4-4-4-4-4-2-4-4-4-4-4-4-4-4-2-0-0-0-0-0-0-0-0-2-2-2-2-2-2-2-| x 2

Pre-Chorus then Chorus and that's the bass finished
The only bit I'm still a bit iffy on is the litte fill in the chorus but that should get 
close. Enjoy!
Suggest correction
What's this?
You can suggest a correction to this tab. Community and Mods will review your correction and vote to approve or reject it.
comments
print report bad tab
1 comment total.
0 reply
Dr Timm 17 wrote on December 15 2010, 12:23 am

excellent tab, very little minor problems involving how you wrote the tab and some notes can be added in, in certain parts, but other than that great tab, 5/5...

guest
You may want to rate the tab now too:
select rating
Please do not post tabs as comments. Select "correction" instead!