Oops, an error
Loading. Please wait.

Rumors Of My Demise Have Been Greatly Exaggerated Tab

version 5
version 5

Intro

Whole song

Interactive

4,147 views 12 this week
1 commentread comment
1 2 3 4 5
excellent!
x 2
add to favorites
launch autoscroll
font size
0
reset
how to read this tab
guitar tuner
Tab Pro tools
  • play this tab
  • loop segment
  • change instrument
  • show fretboard
  • metronome
Autoscroll
slow
fast
+/-
esc
set tempo
stop
Contributor
intro
lead guitar

e-------------------------------------------------------|
B-------------------------------------------------------|
G-------------------------------------------------------|
D--10-10-8-10-8-3-3-33-6-6-66-8-8-88--------------------|
A--10-10-8-10-8-3-3-33-6-6-66-8-8-88--------------------|
D--10-10-8-10-8-3-3-33-6-6-66-8-8-88--------------------|

X4

Intro

rhythm guitar (after playing that twice) ^ ^

e----------------------------------------------------------------|
B----------------------------------------------------------------|
G---12-8-8-10-12-13-12-8-10-12-13-12-8-10-12-13-12-8-10-12-13-12-|
D----x-x-x--x--x--x--x-x--x--x--x--x-x--x--x--x--x-x--x--x--x--x-|
A---10-6-6--8-10-11-10-6--8-10-11-10-6--8-10-11-10-6--8-10-11-10-|
D----------------------------------------------------------------|


Verse

e-------------------------------------------|
B-------------------------------------------|
G-------------------------------------------|
D--10-10-8-10-8-3-3-33-6-6-66-8-8-88--------|
A--10-10-8-10-8-3-3-33-6-6-66-8-8-88--------|
D--10-10-8-10-8-3-3-33-6-6-66-8-8-88--------|
PM  *  * *  * * * * ** * * ** * * **

X4

Pre-Chorus

e--------------------------------------|
B--------------------------------------|
G--------------------------------------|
D--6-6-666-6-6-666-3-3-333-3-3-333-----|
A--6-6-666-6-6-666-3-3-333-3-3-333--X3-|
D--6-6-666-6-6-666-3-3-333-3-3-333-----|

e-----------------------------------|
B-----------------------------------|
G-----------------------------------|
D---6-6-666-6-6-666-8-8-888-8-8-888-|
A---6-6-666-6-6-666-8-8-888-8-8-888-|
D---6-6-666-6-6-666-8-8-888-8-8-888-|

Chorus

e----------------------------------------|
B----------------------------------------|
G--8-8-8-8-------------------------------|
D--8-8-8-8-8-8-8-8-10-10-10-10-6-6-6-6---|
A--6-6-6-6-8-8-8-8-10-10-10-10-6-6-6-6---|
D----------8-8-8-8-10-10-10-10-6-6-6-6---|

X2

Repeat Intro

Repeat Verse

Repeat Pre-Chorus

Repeat Chorus

Bridge

Lead Guitar

e----------------------------------------------------------------------------|
B----------------------------------------------------------------------------|
G----------------------------------------------------------------------------|
D--3-3-1-1-3-3-10-10-6-6-6-6-8-8---------------------------------------------|
A--3-3-1-1-3-3-10-10-6-6-6-6-8-8---------------------------------------------|
D--3-3-1-1-3-3-10-10-6-6-6-6-8-8---------------------------------------------|

Just figure out the strumming pattern

Rhythm Guitar

e------------------|
B------------------|
G--5-5-5-5-3h5p3p5-|
D------------------|
A------------------|
D------------------|

Repeat this until the screaming part is over

and i think they use a phaser effect on this part

Repeat Pre-Chorus

Repeat Chorus

End with
e------------|
B------------|
G----8-------|
D----8-------|
A----6-------|
D------------|

and just let it ring

I use this tab all the time.
it's 100% correct

Rate and Comment please
comments
We did not receive enough feedback on this tab! Please rate:
print report bad tab
1 2 3 4 5
1 comment total.
0 reply
RiseAgainst86 wrote on July 29 2009, 12:47 am

Good tab man, its spot on. However, I believe your bridge is off a bit. I tooled around with it a bit and this is what I've been playing and it sounds correct to me.

e--------------------------------------------------------------|
B--------------------------------------------------------------|
G--------------------------------------------------------------| x2
D--3-3--3-1-3--3-3--3-1-3--6-6--3-1-3--8-8--3-1-3--------------|
A--3-3--3-1-3--3-3--3-1-3--6-6--3-1-3--8-8--3-1-3--------------|
D--3-3--3-1-3--3-3--3-1-3--6-6--3-1-3--8-8--3-1-3--------------|

then...

e--------------------------------------------------------------|
B--------------------------------------------------------------|
G--------------------------------------------------------------| x2
D--333333333-111-333333333-111-666666666-111-888888888-(111)---|
A--333333333-111-333333333-111-666666666-111-888888888-(111)---|
D--333333333-111-333333333-111-666666666-111-888888888-(111)---|

^don't play the notes in ( ) on the second run through. Figure out the strumming pattern, its pretty quick. When I play it, it sounds right to me, but my ear isn't that great. It is however more accurate than the bridge in the original tab.

I want to post or [tab]
guest
You may want to rate the tab now too:
select rating
Please do not post tabs as comments. Select "correction" instead!