Oops, an error
Loading. Please wait.

Satellite Bass Tab

version 1
version 1

Whole song

Interactive

16,009 views 30 this week
3 commentsread comments
1 2 3 4 5
x 10
add to favorites
launch autoscroll
font size
0
reset
guitar tuner
Autoscroll
slow
fast
+/-
esc
set tempo
stop
Help us to improve Ultimate-Guitar.com Take our survey!
×
Author
Tuning
D A D G B E
RISE AGAINST - Satellite
Tabbed By: Unicorn Death
Email: albinojellyfish1@Gmail.com

Tuning: Standard (D A D G)

Intro
Rest for 16 measures, then:

G|------------------|------------------|------------------|----------------------|
D|-3-3-3-3-3-3-3-3--|-3-3-3-3-3-3-3-3--|-3-3-3-3-3-3-3-3--|----------------------|
A|------------------|------------------|------------------|-1-1-1-1-1-1-1-1-1----|
D|------------------|------------------|------------------|----------------------|
   1 + 2 + 3 + 4 +    1 + 2 + 3 + 4 +    1 + 2 + 3 + 4 +    1 + 2 + 3 + 4 + 5 + 


Chorus
G|------------------|------------------|------------------|------------------|
D|------------------|------------------|------------------|------------------|
A|------------------|------------------|------------------|------------------|
D|-3---3---3-3-3-3--|-3---3---3-3-3-3--|-6---6---6-6-6-6--|-6---6---6-6-6-6--|
   1 + 2 + 3 + 4 +    1 + 2 + 3 + 4 +    1 + 2 + 3 + 4 +    1 + 2 + 3 + 4 +

G|------------------|------------------|------------------|------------------|
D|------------------|------------------|------------------|------------------|
A|-6---6---6-6-6-6--|-6---6---6-6-6-6--|------------------|------------------|
D|------------------|------------------|-8---8---8-8-8-8--|-8---8---8-8-8-8--|
   1 + 2 + 3 + 4 +    1 + 2 + 3 + 4 +    1 + 2 + 3 + 4 +    1 + 2 + 3 + 4 +

G|------------------|------------------|------------------|------------------|
D|------------------|------------------|------------------|------------------|
A|------------------|------------------|------------------|------------------|
D|-3---3---3-3-3-3--|-3---3---3-3-3-3--|-6---6---6-6-6-6--|-6---6---6-6-6-6--|
   1 + 2 + 3 + 4 +    1 + 2 + 3 + 4 +    1 + 2 + 3 + 4 +    1 + 2 + 3 + 4 +

G|------------------|------------------|------------------|
D|------------------|------------------|------------------|
A|-6---6---6-6-6-6--|-6---6---6-6-6-6--|-4-4-4-4-6-6-6-6--|
D|------------------|------------------|------------------|
   1 + 2 + 3 + 4 +    1 + 2 + 3 + 4 +    1 + 2 + 3 + 4 +   

G|------------------|------------------|------------------|------------------|
D|------------------|------------------|------------------|------------------|
A|------------------|------------------|------------------|------------------|
D|-3---3---3-3-3-3--|-3---3---3-3-3-3--|-6---6---6-6-6-6--|-6---6---6-6-6-6--|
   1 + 2 + 3 + 4 +    1 + 2 + 3 + 4 +    1 + 2 + 3 + 4 +    1 + 2 + 3 + 4 +

G|------------------|------------------|------------------|------------------|
D|------------------|------------------|------------------|------------------|
A|-6---6---6-6-6-6--|-6---6---6-6-6-6--|------------------|------------------|
D|------------------|------------------|-8---8---8-8-8-8--|-8---8---8-8-8-8--|
   1 + 2 + 3 + 4 +    1 + 2 + 3 + 4 +    1 + 2 + 3 + 4 +    1 + 2 + 3 + 4 +

G|------------------|------------------|------------------|------------------|
D|------------------|------------------|------------------|------------------|
A|------------------|------------------|------------------|------------------|
D|-3---3---3-3-3-3--|-3---3---3-3-3-3--|-6---6---6-6-6-6--|-6---6---6-6-6-6--|
   1 + 2 + 3 + 4 +    1 + 2 + 3 + 4 +    1 + 2 + 3 + 4 +    1 + 2 + 3 + 4 +

G|------------------|------------------|------------------|
D|------------------|------------------|------------------|
A|-6---6---6-6-6-6--|-6---6---6-6-6-6--|-4-4-4-4-6--------|
D|------------------|------------------|------------------|
   1 + 2 + 3 + 4 +    1 + 2 + 3 + 4 +    1 + 2 + 3 + 4 +   

Post-Chorus
G|------------------|------------------|
D|------------------|------------------|
A|------------------|-6-4-3-4----------|
D|-3-3-3-3-3-3-3-3--|---------6-5-6-3--|
   1 + 2 + 3 + 4 +    1 + 2 + 3 + 4 +   


Verse 1
G|------------------|------------------|------------------|------------------|
D|------------------|------------------|------------------|------------------|
A|------------------|------------------|------------------|------------------|
D|-3---3---3-3-3-3--|-3---3---3-3-3-3--|-6---6---6-6-6-6--|-6---6---6-6-6-6--|
   1 + 2 + 3 + 4 +    1 + 2 + 3 + 4 +    1 + 2 + 3 + 4 +    1 + 2 + 3 + 4 +

G|------------------|------------------|------------------|------------------|
D|------------------|------------------|------------------|------------------|
A|-6---6---6-6-6-6--|-6---6---6-6-6-6--|-4---4---4-4-4-4--|-4---4---4-4-4-4--|
D|------------------|------------------|------------------|------------------|
   1 + 2 + 3 + 4 +    1 + 2 + 3 + 4 +    1 + 2 + 3 + 4 +    1 + 2 + 3 + 4 +

G|------------------|------------------|------------------|------------------|
D|------------------|------------------|------------------|------------------|
A|------------------|------------------|------------------|------------------|
D|-3---3---3-3-3-3--|-3---3---3-3-3-3--|-6---6---6-6-6-6--|-6---6---6-6-6-6--|
   1 + 2 + 3 + 4 +    1 + 2 + 3 + 4 +    1 + 2 + 3 + 4 +    1 + 2 + 3 + 4 +

G|------------------|------------------|------------------|------------------|
D|------------------|------------------|------------------|------------------|
A|-6---6---6-6-6-6--|-6---6---6-6-6-6--|-4---4---4-4-4-4--|-6---6---6-6-6-6--|
D|------------------|------------------|------------------|------------------|
   1 + 2 + 3 + 4 +    1 + 2 + 3 + 4 +    1 + 2 + 3 + 4 +    1 + 2 + 3 + 4 + 

G|------------------|------------------|------------------|------------------|
D|------------------|------------------|------------------|------------------|
A|------------------|------------------|------------------|------------------|
D|-3---3---3-3-3-3--|-3---3---3-3-3-3--|-6---6---6-6-6-6--|-6---6---6-6-6-6--|
   1 + 2 + 3 + 4 +    1 + 2 + 3 + 4 +    1 + 2 + 3 + 4 +    1 + 2 + 3 + 4 +

G|------------------|------------------|------------------|------------------|
D|------------------|------------------|------------------|------------------|
A|-6---6---6-6-6-6--|-6---6---6-6-6-6--|------------------|------------------|
D|------------------|------------------|-8---8---8-8-8-8--|-8---8---8-8-8-8--|
   1 + 2 + 3 + 4 +    1 + 2 + 3 + 4 +    1 + 2 + 3 + 4 +    1 + 2 + 3 + 4 +

G|------------------|------------------|------------------|------------------|
D|------------------|------------------|-6---6---6-6-6-6--|-6---6---8---6----|
A|-8---8---8-8-8-8--|-8---8---8-8-8-8--|-------------------------------------|
D|------------------|------------------|-------------------------------------|
   1 + 2 + 3 + 4 +    1 + 2 + 3 + 4 +    1 + 2 + 3 + 4 +    1 + 2 + 3 + 4 +

G|------------------|------------------|------------------|------------------|
D|------------------|------------------|------------------|------------------|
A|-6---6---6-6-6-6--|-6---6---6-6-6-6--|-4---4---4-4-4-4--|-6----------------|
D|------------------|------------------|------------------|------------------|
   1 + 2 + 3 + 4 +    1 + 2 + 3 + 4 +    1 + 2 + 3 + 4 +    1 + 2 + 3 + 4 +



Chorus
G|------------------|------------------|------------------|------------------|
D|------------------|------------------|------------------|------------------|
A|------------------|------------------|------------------|------------------|
D|-3---3---3-3-3-3--|-3---3---3-3-3-3--|-6---6---6-6-6-6--|-6---6---6-6-6-6--|
   1 + 2 + 3 + 4 +    1 + 2 + 3 + 4 +    1 + 2 + 3 + 4 +    1 + 2 + 3 + 4 +

G|------------------|------------------|------------------|------------------|
D|------------------|------------------|------------------|------------------|
A|-6---6---6-6-6-6--|-6---6---6-6-6-6--|------------------|------------------|
D|------------------|------------------|-8---8---8-8-8-8--|-8---8---8-8-8-8--|
   1 + 2 + 3 + 4 +    1 + 2 + 3 + 4 +    1 + 2 + 3 + 4 +    1 + 2 + 3 + 4 +

G|------------------|------------------|------------------|------------------|
D|------------------|------------------|------------------|------------------|
A|------------------|------------------|------------------|------------------|
D|-3---3---3-3-3-3--|-3---3---3-3-3-3--|-6---6---6-6-6-6--|-6---6---6-6-6-6--|
   1 + 2 + 3 + 4 +    1 + 2 + 3 + 4 +    1 + 2 + 3 + 4 +    1 + 2 + 3 + 4 +

G|------------------|------------------|------------------|
D|------------------|------------------|------------------|
A|-6---6---6-6-6-6--|-6---6---6-6-6-6--|-4-4-4-4-6-6-6-6--|
D|------------------|------------------|------------------|
   1 + 2 + 3 + 4 +    1 + 2 + 3 + 4 +    1 + 2 + 3 + 4 +   

G|------------------|------------------|------------------|------------------|
D|------------------|------------------|------------------|------------------|
A|------------------|------------------|------------------|------------------|
D|-3---3---3-3-3-3--|-3---3---3-3-3-3--|-6---6---6-6-6-6--|-6---6---6-6-6-6--|
   1 + 2 + 3 + 4 +    1 + 2 + 3 + 4 +    1 + 2 + 3 + 4 +    1 + 2 + 3 + 4 +

G|------------------|------------------|------------------|------------------|
D|------------------|------------------|------------------|------------------|
A|-6---6---6-6-6-6--|-6---6---6-6-6-6--|------------------|------------------|
D|------------------|------------------|-8---8---8-8-8-8--|-8---8---8-8-8-8--|
   1 + 2 + 3 + 4 +    1 + 2 + 3 + 4 +    1 + 2 + 3 + 4 +    1 + 2 + 3 + 4 +

G|------------------|------------------|------------------|------------------|
D|------------------|------------------|------------------|------------------|
A|------------------|------------------|------------------|------------------|
D|-3---3---3-3-3-3--|-3---3---3-3-3-3--|-6---6---6-6-6-6--|-6---6---6-6-6-6--|
   1 + 2 + 3 + 4 +    1 + 2 + 3 + 4 +    1 + 2 + 3 + 4 +    1 + 2 + 3 + 4 +

G|------------------|------------------|------------------|
D|------------------|------------------|------------------|
A|-6---6---6-6-6-6--|-6---6---6-6-6-6--|-4-4-4-4-6--------|
D|------------------|------------------|------------------|
   1 + 2 + 3 + 4 +    1 + 2 + 3 + 4 +    1 + 2 + 3 + 4 +   


Bridge 1
G|------------------|------------------|------------------|-3/5-------------|
D|------------------|------------------|------------------|---------6-------|
A|-4-4-4-4-4-4-4-4--|-4-4-4-4-4-4-4-4--|-6-6-6-6-6-6-6-6--|-------------6---|
D|------------------|-------------------------------------------------------|
   1 + 2 + 3 + 4 +    1 + 2 + 3 + 4 +    1 + 2 + 3 + 4 +    1 + 2 + 3 + 4 +

G|------------------|------------------|-8----------------|
D|------------------|------------------|-----8------------|
A|-4-4-4-4-4-4-4-4--|-4-4-4-4-4-4-4-4--|---------6--------|
D|------------------|-------------------------------------|
   1 + 2 + 3 + 4 +    1 + 2 + 3 + 4 +    1 + 2 + 3 + 4 + 


Bridge 2
Half-time feel
Rest for 4 measures, then:
G|------------------|------------------|------------------|------------------|
D|------------------|------------------|------------------|------------------|
A|------------------|-4---4---4---4----|-6---6---6---6----|------------------|
D|-3---3---3---3----|------------------|------------------|-8---8---8---8----|
   1 + 2 + 3 + 4 +    1 + 2 + 3 + 4 +    1 + 2 + 3 + 4 +    1 + 2 + 3 + 4 +

G|------------------|------------------|------------------|------------------|
D|------------------|------------------|------------------|------------------|
A|------------------|-4---4---4---4----|-6---6---6---6----|------------------|
D|-3---3---3---3----|------------------|------------------|-8---8---8---8----|
   1 + 2 + 3 + 4 +    1 + 2 + 3 + 4 +    1 + 2 + 3 + 4 +    1 + 2 + 3 + 4 +

G|------------------|------------------|------------------|------------------|
D|------------------|------------------|------------------|------------------|
A|------------------|-4---4---4---4----|-6---6---6---6----|------------------|
D|-3---3---3---3----|------------------|------------------|-8---8---8---8----|
   1 + 2 + 3 + 4 +    1 + 2 + 3 + 4 +    1 + 2 + 3 + 4 +    1 + 2 + 3 + 4 +

G|------------------|------------------|------------------|------------------|
D|------------------|------------------|------------------|------------------|
A|------------------|-4---4---4---4----|-6---6---6---6----|------------------|
D|-3---3---3---3----|------------------|------------------|-8---8---8---8----|
   1 + 2 + 3 + 4 +    1 + 2 + 3 + 4 +    1 + 2 + 3 + 4 +    1 + 2 + 3 + 4 +

G|------------------|------------------|------------------|------------------|
D|------------------|------------------|------------------|------------------|
A|------------------|-4---4---4---4----|-6---6---6---6----|------------------|
D|-3---3---3---3----|------------------|------------------|-8---8---8---8----|
   1 + 2 + 3 + 4 +    1 + 2 + 3 + 4 +    1 + 2 + 3 + 4 +    1 + 2 + 3 + 4 +

G|------------------|------------------|------------------|------------------|
D|------------------|------------------|------------------|------------------|
A|------------------|-4---4---4---4----|-6---6---6---6----|------------------|
D|-3---3---3---3----|------------------|------------------|-8---8---8---8----|
   1 + 2 + 3 + 4 +    1 + 2 + 3 + 4 +    1 + 2 + 3 + 4 +    1 + 2 + 3 + 4 +


Bridge 3
Half-time feel
G|------------------|------------------|------------------|
D|------------------|------------------|-------5---5-6-8--|
A|-4---4---4---4----|--4---4---4---4---|-6---6---6--------|
D|------------------|------------------|------------------|
   1 + 2 + 3 + 4 +    1 + 2 + 3 + 4 +    1 + 2 + 3 + 4 +   

G|------------------|------------------|----------------------|
D|------------------|------------------|----------------------|
A|-4---4---4---4----|-4---4---4---4----|-6---6---6---6---6----|
D|------------------|-----------------------------------------|
   1 + 2 + 3 + 4 +    1 + 2 + 3 + 4 +    1 + 2 + 3 + 4 + 5 + 


Chorus
Double-time feel
G|------------------|------------------|------------------|------------------|
D|------------------|------------------|------------------|------------------|
A|------------------|------------------|------------------|------------------|
D|-3----------------|------------------|------------------|-------------111--|
   1 + 2 + 3 + 4 +    1 + 2 + 3 + 4 +    1 + 2 + 3 + 4 +    1 + 2 + 3 + 4 +

G|------------------|------------------|------------------|------------------|
D|------------------|------------------|------------------|------------------|
A|------------------|------------------|------------------|------------------|
D|-3---3---3-3-3-3--|-3---3---3-3-3-3--|-6---6---6-6-6-6--|-6---6---6-6-6-6--|
   1 + 2 + 3 + 4 +    1 + 2 + 3 + 4 +    1 + 2 + 3 + 4 +    1 + 2 + 3 + 4 +

G|------------------|------------------|------------------|------------------|
D|------------------|------------------|------------------|------------------|
A|-6---6---6-6-6-6--|-6---6---6-6-6-6--|-4---4---4-4-4-4--|-6---6---6-6-6-6--|
D|------------------|------------------|------------------|------------------|
   1 + 2 + 3 + 4 +    1 + 2 + 3 + 4 +    1 + 2 + 3 + 4 +    1 + 2 + 3 + 4 +

G|------------------|------------------|------------------|------------------|
D|------------------|------------------|------------------|------------------|
A|------------------|------------------|------------------|------------------|
D|-3---3---3-3-3-3--|-3---3---3-3-3-3--|-6---6---6-6-6-6--|-6---6---6-6-6-6--|
   1 + 2 + 3 + 4 +    1 + 2 + 3 + 4 +    1 + 2 + 3 + 4 +    1 + 2 + 3 + 4 +

G|------------------|------------------|------------------|------------------|
D|------------------|------------------|------------------|------------------|
A|-6---6---6-6-6-6--|-6---6---6-6-6-6--|------------------|------------------|
D|------------------|------------------|-8---8---8-8-8-8--|-8---8---8-8-8-8--|
   1 + 2 + 3 + 4 +    1 + 2 + 3 + 4 +    1 + 2 + 3 + 4 +    1 + 2 + 3 + 4 +

G|------------------|------------------|------------------|------------------|
D|------------------|------------------|------------------|------------------|
A|-8---8---8-8-8-8--|-8---8---8-8-8-8--|------------------|------------------|
D|------------------|------------------|-6---6---6-6-6-6--|-6---6---6-6-6-6--|
   1 + 2 + 3 + 4 +    1 + 2 + 3 + 4 +    1 + 2 + 3 + 4 +    1 + 2 + 3 + 4 +

G|------------------|------------------|------------------|
D|------------------|------------------|---------1--------|
A|-6---6---6-6-6-6--|-6---6---6-6-6-6--|-4-3-1-4----------|
D|------------------|------------------|------------------|
   1 + 2 + 3 + 4 +    1 + 2 + 3 + 4 +    1 + 2 + 3 + 4 + 


Outro
G|------------------|------------------|------------------|------------------|
D|------------------|------------------|------------------|------------------|
A|------------------|------------------|------------------|------------------|
D|-3---3---3-3-3-3--|-3---3---3-3-3-3--|-6---6---6-6-6-6--|-6---6---6-6-6-6--|
   1 + 2 + 3 + 4 +    1 + 2 + 3 + 4 +    1 + 2 + 3 + 4 +    1 + 2 + 3 + 4 +

G|------------------|------------------|------------------|------------------|
D|------------------|------------------|------------------|------------------|
A|-6---6---6-6-6-6--|-6---6---6-6-6-6--|------------------|------------------|
D|------------------|------------------|-8---8---8-8-8-8--|-8---8---8-8-8-8--|
   1 + 2 + 3 + 4 +    1 + 2 + 3 + 4 +    1 + 2 + 3 + 4 +    1 + 2 + 3 + 4 +

G|------------------|------------------|------------------|------------------|
D|-5---5---5-5-5-5--|-5---5---5-5-5-5--|-6---6---6-6-6-6--|-6---6---6-6-6-6--|
A|------------------|------------------|------------------|------------------|
D|------------------|------------------|------------------|------------------|
   1 + 2 + 3 + 4 +    1 + 2 + 3 + 4 +    1 + 2 + 3 + 4 +    1 + 2 + 3 + 4 +

G|------------------|------------------|------------------|------------------|
D|------------------|------------------|------------------|------------------|
A|-6---6---6-6-6-6--|-6---6---6-6-6-6--|-6---6---6-6-6-6--|-6---6---6-6-6-6--|
D|------------------|------------------|------------------|------------------|
   1 + 2 + 3 + 4 +    1 + 2 + 3 + 4 +    1 + 2 + 3 + 4 +    1 + 2 + 3 + 4 +

G|------------------|------------------|------------------|----------------------|
D|------------------|------------------|------------------|----------------------|
A|-4---4---x-x-x-x--|-4---4---x-x-x-x--|-4---4---x-x-x-x--|-4---4---x-x-x-x------|
D|------------------|------------------|------------------|-----------------3----|
   1 + 2 + 3 + 4 +    1 + 2 + 3 + 4 +    1 + 2 + 3 + 4 +    1 + 2 + 3 + 4 + 5 +
Suggest correction
comments
print report bad tab
3 comments total.
-1 reply
GrunnyRiku 197 Apr 05, 2011 06:04 PM

Notes are mostly correct. The rhythm is incorrect and the grace notes you hear at the end of a verse are missing as well. If you have problems with hearing the song then I suggest getting better headphones. Also the notes for bridge 2 are incorrect. 3 on the first string to 4 on the second is correct but after that should be a lower note, not a higher one, which is then followed by a higher one. Possibly switch the bars of 6's and 8's? Also in the middle of bridge 3 there are more notes than just;


------------------|
-------5---5-6-8--|
-6---6---6--------|
------------------|


Again i suggest better headphones. Skullcandy Skullcrushers are $80. Yes you can get the low end Beats by Dr Dre but I have compared them with my Skullcrushers and the Beats don't even come close. Also the warrantee on Skullcandy is "If there is an electrical failure, we will replace them for free. If they were broken from aggressive listen [meaning broken headband or ripped cord sort of thing] we will send you a half off coupon for your next pair of the same headphones." If you are not willing to spend good money on a set of headphones then please reconsider writing tabs.

+2 reply
Unicorn Death 653 Apr 05, 2011 09:59 PM

No, bridge 2 definitely has higher notes. Skullcandy headphones are absolute crap compared to my Bose headphones, so maybe you should learn how to pick out a real pair of headphones before you try and act like you know anything about headphones. Did you buy Skullcandys because you think you're cool? Bandwagon.

Get your Skullcandy advertising out of my tab. How many tabs have you contributed to Ultimate-Guitar? That's what I thought.

+2 reply
Dopeskank 10 Apr 06, 2011 08:59 AM

Looks perfect! And I agree with Unicorn, the bridge sounds fine. Quit whining about headphone quality on a tab site and make your own bass tab if you think that you're such a better person because Daddy bought you a cruddy pair of Skullcandys.

Also, grace notes don't necessarily need to be included. That's why they're GRACE NOTES.

guest
You may want to rate the tab now too:
select rating
Wanna post a correction for this tab? Suggest correction