Oops, an error
Loading. Please wait.

Satellite Bass Tab

version 2
version 2

Whole song

Interactive

5,273 views 3 this week
1 commentread comment
1 2 3 4 5
1 last vote to show rating
add to favorites
launch autoscroll
font size
0
reset
guitar tuner
Autoscroll
slow
fast
+/-
esc
set tempo
stop
Help us to improve Ultimate-Guitar.com Take our survey!
×
Author
Difficulty
Tuning
novice
D A D G B E
Rise Against - Satellites

From their new and rather amazing album, Endgame! :D

Ok ive been told this version isnt as accurate as the last. But if your a brand new 
basist on the block and want an easier version to play first. This is where you start :)

Tuning: D A D G

Intro
REST (Or REST for 2 bars and play Verse x2 if you get bored!)


Chorus
G|--------------------------------------------------------------------------|
D|--------------------------------------------------------------------------|
A|-------------------66666666----------------------------66666666-4444-6666-|x2
D|-33333333-66666666----------88888888-33333333-66666666--------------------|

Pre-Verse
G|----------|
D|----------|
A|----------| x4  (The last bar is a tad more intricate
D|-33333333-|      so you can just play the preverse again)

Verse
G|-------------------------------------|
D|-------------------------------------|   X4
A|-88888888----------66666666----------|
D|----------66666666----------88888888-|

Chorus

Bridge Part 1
G|-------------------------------------|
D|-------------------------------------|
A|--4444444444444444-6666666666666666--| x2 (end on 6~)
D|-------------------------------------|

REST

G|----------------------|
D|-------6666-8888------| x4
A|--8888----------------|
D|-----------------8888-|

G|-------------------|
D|-------------------|
A|-88888888----------| x4
D|----------66666666-|

G|-------------------|
D|-3----(Drum solo)--|
A|-3-----------------|
D|-3-----------------|

Chorus (only without the first bar)

End
G|--------------------------------------------|
D|--------------------------------------------|
A|-4-4--xxx--4-4--xxx--4-4--xxx--4-4--xxx-----|
D|-----------------------------------------3\-|
Suggest correction
Give kudos to tab author, rate the tab!
1 2 3 4 5
comments
print report bad tab
1 comment total.
0 reply
GrunnyRiku 197 Apr 06, 2011 11:17 AM

Missing an entire line at the beginning, also a lot of the notes are incorrect and the rhythm is completely wrong. at least the last guy attempted to get the rhythm... from the way this looks there was not much effort into this.

guest
You may want to rate the tab now too:
select rating
Wanna post a correction for this tab? Suggest correction