Oops, an error
Loading. Please wait.

Satellite Tab

version 2
version 2

Whole song

Interactive

4,823 views 3 this week
2 commentsread comments
1 2 3 4 5
worth learning
x 4
add to favorites
launch autoscroll
font size
0
reset
how to read this tab
guitar tuner
Autoscroll
slow
fast
+/-
esc
set tempo
stop
Help us to improve Ultimate-Guitar.com Take our survey!
×
Author
Difficulty
intermediate
-------------------------------------------------------------------------------
                             Satellite - Rise Against
-------------------------------------------------------------------------------
Tabbed by: Patrick Villeneuve

Tuning: D A D G B E


Intro
Clean
e|----------------------------|
B|----------------------------|
G|-10-------8-----------------|
D|-10---8---8---10------------|   X4
A|-8----6---6---10------------|
E I------6-------8------------|


Chorus
Disto
e|---------------------------------------------------------------------------|
B|--------------------------------------------------------4-6----------------|
G|---------8----------------8---6--8----------5---5-3------------------------|
D|-3---6---8---8----3---6---8---6--8---X2-----3-------5-6-------3------------|
A|-3---6---6---8----3---6---6---4--6----------3------------------------------|
E|-1---4-------6----1---3---------------------3------------------------------|


Verse
Disto
e|---------4-3--------------------|
B|----4-----------4-----4-6-------|
G|--5-----------5-----3-----------|
D|--------------------------------|   X2
A|--------------------------------|
E|--------------------------------|

(PICK SLIDE)

Chorus
Disto
e|--------------------------------------------|
B|--------------------------------------------|
G|---------8----------------8---6--8----------|
D|-3---6---8---8----3---6---8---6--8----------|  X2
A|-3---6---6---8----3---6---6---4--6----------|
E-1---4-------6----1---4----------------------|




Bridge Part 1
Disto
e|-----------------|
B|-----------------|
G|--6---8---6---8--|
D|--6---8---6---8--|
A|--4---6---4---6--|
E|-----------------|


Bridge Part 2
Clean
e|-----------------------|
B|-----------------------|
G|--10--6---8-- ---------|
D|--10--6---8---10-------|  X4
A|--8---4---6--- 8-------|
E|---------------8-------|

Bridge Part 3
Disto
e|-------------------------------------|
B|-------------------------------------|
G|------6---8-------------6--8--6--8---|
D|--3---6---8---8---X4----6--8--6--8---|
A|--3---4---6---8---------4--6--4--6---|
E|--1-----------6----------------------|

Chorus
Disto
e|---------------------------------------------|
B|---------------------------------------------|
G|------------------------------3--------------|
D|-3----(Drum solo)--2--3---------5-6-5-1-3----|
A|-3---------------2--3------------------------|
E|-1---------------0--1------------------------|

e|-------------------------------|
B|-------------------------------|
G|---------8----------------8--8-|
D|-3---6---8---8----3---6---8--8-|
A|-3---6---6---8----3---6---6--6-|
E|-1---4-------6----1---4--------|

End
Disto
e|--------------------------------------------|
B|--------------------------------------------|
G|-6-6--xxx--6-6--xxx--6-6--xxx--6-6--xxx-----|
D|-6-6--xxx--6-6--xxx--6-6--xxx--6-6--xxx--3--|
A|-4-4--xxx--4-4--xxx--4-4--xxx--4-4--xxx--3--|
E|-----------------------------------------3--|


************************************

| /   slide up
| \   slide down
| h   hammer-on
| p   pull-off
| ~   vibrato
| +   harmonic
| x   Mute note
| b   Bend
| pb  Pre-bend
| br  Bend release
| pbr Pre-bend release
| brb Bend release bend

************************************
If you have any questions or corrections please email them to me at jab12@me.com
Suggest correction
What's this?
You can suggest a correction to this tab. Community and Mods will review your correction and vote to approve or reject it.
comments
print report bad tab
2 comments total.
0 reply
UnavailableUser 248 wrote on March 22 2011, 03:42 pm

lol you totally stole this from the other tab, and changed the tuning hahahaha

"Tabbed by: Patrick Villeneuve"
The same as the first version of this tab
way to go, loser

0 reply
guitdubako 43 wrote on March 28 2011, 07:50 pm

wtf with you!? you stole my tab!

guest
You may want to rate the tab now too:
select rating
Please do not post tabs as comments. Select "correction" instead!