Oops, an error
Loading. Please wait.

Satellite Bass Tab

version 3
version 3

Whole song

Interactive

4,540 views 27 this week
1 commentread comment
1 2 3 4 5
accurate
x 5
add to favorites
launch autoscroll
font size
0
reset
guitar tuner
Tab Pro tools
  • play this tab
  • loop segment
  • change instrument
  • show fretboard
  • metronome
Autoscroll
slow
fast
+/-
esc
set tempo
stop
Contributor
Tuning
D# G# C# F# A# D#
0:28
F#|---------------------------------------------------------------------|
C#|-4-4-4-4-4-4-4-4-4-4-4-4-4-4-4-4-4-4-4-4-4-4-4-4---------------------|
G#|---------------------------------------------------------------------|
D#|-------------------------------------------------2-2-2-2-2-2-2-2-2---|

0:35
F#|-----------------------------------------------------------------|
C#|-----------------------------------------------------------------|
G#|---------------------------------0---0---0-0-0---0---0---0-0-0---|
D#|-2---2---2-2-2---2---2---2-2-2-----------------------------------|

F#|-----------------------------------------------------------------|
C#|-2---2---2-2-2-2-2-2-2-2-2-2-2-2-------------------------2-------|
G#|---------------------------------2---2---2-2-2---2---2-------2---|
D#|-----------------------------------------------------------------|

0:43
F#|-----------------------------------------------------------------|
C#|-4---4---4-4-4---4---4---4-4-4-----------------------------------|
G#|---------------------------------0---0---0-0-0---0---0---0-0-0---|
D#|-----------------------------------------------------------------|

F#|-----------------------------------------------------------------|
C#|-2---2---2-2-2-2-2-2-2-2-2-2-2-2-0---0---0---0---2---2---2---2---|
G#|-----------------------------------------------------------------|
D#|-----------------------------------------------------------------|

0:50
F#|-----------------------------------------------------------------|
C#|-----------------------------------------------------------------|
G#|---------------------------------0---0---0-0-0---0---0---0-0-0---|
D#|-2---2---2-2-2---2---2---2-2-2-----------------------------------|

F#|-----------------------------------------------------------------|
C#|-2---2---2-2-2---2---2---2---2---------------------------2-------|
G#|---------------------------------2---2---2-2-2---2---2-------2---|
D#|-----------------------------------------------------------------|

0:57
F#|-----------------------------------------------------------------|
C#|-4---4---4---4---4---4---4---4---7---7---7---7---7---7---7---7---|
G#|-----------------------------------------------------------------|
D#|-----------------------------------------------------------------|

F#|-----------------------------------------------------------------|
C#|-2---2---2---2---2---2---2---2---0---0---0---0---2---------------|
G#|-----------------------------------------------------------------|
D#|-----------------------------------------------------------------|

1:04
F#|-----------------------------------------------------------------|
C#|-----------------------------------------------------------------|
G#|-----------------------------------------------------------------|
D#|-2---2---2-2-2-2-2---2---2-2-2-2-2---2-2---2-2---2---2---2-2-2-2-|

F#|-----------------------------------------------------------------|
C#|-4---2---0---2---0---------------------------2-/-4---------------|
G#|---------------------4---2---0-----------------------------------|
D#|---------------------------------2-------------------------------|

1:11
F#|-----------------------------------------------------------------|
C#|-----------------------------------------------------------------|
G#|-----------------------------------------------------------------|
D#|-2-2-2-2-2-2-2-2-2-2-2-2-2-2-2-2-5-5-5-5-5-5-5-5-5---5-5---5-5---|

F#|-----------------------------------------------------------------|
C#|-2-2-2-2-2-2-2-2-2-2-2-2-2-2-2-2-0-0-0-0-0-0-0-0-0---0-0---0-0---|
G#|-----------------------------------------------------------------|
D#|-----------------------------------------------------------------|

F#|-----------------------------------------------------------------|
C#|-----------------------------------------------------------------|
G#|-----------------------------------------------------------------|
D#|-2-2-2-2-2-2-2-2-2-2-2-2-2-2-2-2-5-5-5-5-5-5-5-5-5-5-5-5-5-5-5-5-|

F#|-----------------------------------------------------------------|
C#|-2-2-2-2-2-2-2-2-2-2-2-2-2-2-2-2-0-0-0-0-0-0-0-0-2-2-2-2-2-2-2-2-|
G#|-----------------------------------------------------------------|
D#|-----------------------------------------------------------------|

1:25
F#|-----------------------------------------------------------------|
C#|-----------------------------------------------------------------|
G#|---------------------------------0---0---0-0-0---0---0---0-0-0---|
D#|-2---2---2-2-2---2---2---2-2-2-----------------------------------|

F#|-----------------------------------------------------------------|
C#|-2---2---2-2-2---2---2---2---2---------------------------2-------|
G#|---------------------------------2---2---2-2-2---2---2-------2---|
D#|-----------------------------------------------------------------|

1:32
F#|-----------------------------------------------------------------|
C#|-4---4---4---4---4---4---4---4---7---7---7---7---7---7---9---7---|
G#|-----------------------------------------------------------------|
D#|-----------------------------------------------------------------|

F#|-----------------------------------------------------------------|
C#|-2---2---2---2---2---2---2-------0---0---0---0---2---------------|
G#|-----------------------------4-----------------------------------|
D#|-----------------------------------------------------------------|

1:39
F#|-----------------------------------------------------------------|
C#|-----------------------------------------------------------------|
G#|---------------------------------0---0---0-0-0---0---0---0-0-0---|
D#|-2---2---2-2-2---2---2---2-2-2-----------------------------------|

F#|-----------------------------------------------------------------|
C#|-2---2---2-2-2---2---2---2---2---------------------------2-------|
G#|---------------------------------2---2---2-2-2---2---2-------2---|
D#|-----------------------------------------------------------------|

F#|-----------------------------------------------------------------|
C#|-4---4---4-4-4---4---4---4-4-4-----------------------------------|
G#|---------------------------------0---0---0-0-0---0---0---0-0-0---|
D#|-----------------------------------------------------------------|

F#|---------------------------------------------------------------------|
C#|-2---2---2---2---2---2---2---2---0---0---0---0---14------------------|
G#|------------------------------------------------------14-------------|
D#|-----------------------------------------------------------12---10---|

1:53
F#|-----------------------------------------------------------------|
C#|-----------------------------------------------------------------|
G#|---------------------------------0---0---0-0-0---0---0---0-0-0---|
D#|-2---2---2-2-2---2---2---2-2-2-----------------------------------|

F#|-----------------------------------------------------------------|
C#|-2---2---2-2-2---2---2---2---2---------------------------2-------|
G#|---------------------------------2---2---2-2-2---2---2-------2---|
D#|-----------------------------------------------------------------| 

F#|-----------------------------------------------------------------|
C#|-4---4---4---4---4---4---4-4-4---7---7---7---7---7---7-7---7-7---|
G#|-----------------------------------------------------------------|
D#|-----------------------------------------------------------------|

F#|-----------------------------------------------------------------|
C#|-2---2---2---2---2---2---2---2---0---0---0---0---2---------------|
G#|---------------------------------------------------------2-------|
D#|-----------------------------------------------------------------|

2:07
F#|-----------------------------------------------------------------|
C#|-0---0---0---0---0---0---0---0---0---0---0---0---0---0---0---0---|
G#|-----------------------------------------------------------------|
D#|-----------------------------------------------------------------|

F#|-------------------------------4/6-------4-------2-------2---1---|
C#|-2---2---2---2---2---2---2---2-------2-------2-------2-----------|
G#|-----------------------------------------------------------------|
D#|-----------------------------------------------------------------|

2:15
F#|-----------------7---7---7---7---7---7---7---7---9-----------------------|
C#|-0---0---0---0-------------------------------------------9---------------|
G#|-------------------------------------------------------------------------|
D#|-----------------------------------------------------------------0-------|

Rest

2:31
F#|-----------------------------------------------------------------|
C#|-----------------0---0---0---0---2---2---2---2-------------------|
G#|-------------------------------------------------2---2---2---2---|
D#|-2---2---2---2---------------------------------------------------|

F#|------------------------------------------------------------------|
C#|-----------------0---0---0---0---2---2---2---2--------------------|
G#|-------------------------------------------------2---2---2-/-14-\-|
D#|-2---2---2---2----------------------------------------------------|

2:40
F#|-----------------------------------------------------------------|
C#|-----------------------------------------------------------------|
G#|-----------------5---5---5---5-------------------2---2---2---2---|
D#|-2---2---2---2-------------------0---0---0---0-------------------|

F#|-----------------------------------------------------------------|
C#|-----------------------------------------------------------------|
G#|-----------------5---5---5---5-------------------2---2-----------|
D#|-2---2---2---2-------------------0---0---0---0-----------5---4---|

2:50
F#|-----------------------------------------------------------------|
C#|-----------------------------------------------------------------|
G#|-----------------5---5---5---5-------------------2---------------|
D#|-2---2---2---2-------------------0---0---0---0-------4---5---4---|

F#|-----------------------------------------------------------------|
C#|-----------------------------------------------------------------|
G#|-----------------5---5---5---5-------------------2---2---4---2---|
D#|-2---2---2---2-------------------0---0---0---0-------------------|

2:59
F#|-----------------------------------------1-------1---2---1-------|
C#|-0---0---0---0---0---0---0---0---2---2-------2---------------2---|
G#|-----------------------------------------------------------------|
D#|-----------------------------------------------------------------|

F#|-----------------------------------------------------------------|
C#|-0---0---0---0---0---0---0---0-----------------------------------|
G#|-----------------------------------------------------------------|
D#|---------------------------------0---0---0---0---0---------------|

3:08
F#|-----------------------------------------------------------------|
C#|-----------------------------------------------------------------|
G#|-----------------------------------------------------------------|
D#|-2-------------------------------------------------------0-0-0-0-|

F#|-----------------------------------------------------------------|
C#|-----------------------------------------------------------------|
G#|---------------------------------0---0---0-0-0-0-0---0---0-0-0-0-|
D#|-2---2---2-2-2-2-2---2---2-2-2-2---------------------------------|

F#|-----------------------------------------------------------------|
C#|-2---2---2-2-2-2-2---2---2-2-2-2-0---0---0-0-0-0-2---2---2-2-2-2-|
G#|-----------------------------------------------------------------|
D#|-----------------------------------------------------------------|

3:23
F#|-----------------------------------------------------------------|
C#|-----------------------------------------------------------------|
G#|---------------------------------0---0---0-0-0-0-0---0---0-0-0-0-|
D#|-2---2---2-2-2-2-2---2---2-2-2-2---------------------------------|

F#|-----------------------------------------------------------------|
C#|-2---2---2-2-2-2-2---2---2-2-2-2-------------------------2-2-----|
G#|---------------------------------2---2---2-2-2-2-2---2-2-----2---|
D#|-----------------------------------------------------------------|

F#|-----------------------------------------------------------------|
C#|-4---4---4-4-4-4-4---4---4-4-4-4---------------------------------|
G#|---------------------------------0---0---0-0-0-0-0---0---0-0-0-0-|
D#|-----------------------------------------------------------------|

F#|-----------------------------------------------------------------|
C#|-2---2---2-2-2-2-2---2---2-2-2-2-0---------------2---------------|
G#|-------------------------------------4---2---0-------------------|
D#|-----------------------------------------------------------------|

3:37
F#|-----------------------------------------------------------------|
C#|-----------------------------------------------------------------|
G#|---------------------------------0---0---0-0-0-0-0---0---0-0-0-0-|
D#|-2---2---2-2-2-2-2---2---2-2-2-2---------------------------------|

F#|-----------------------------------------------------------------|
C#|-2---2---2-2-2-2-2---2---2-2-2-2-------------------------0---2---|
G#|---------------------------------2---2---2-2-2-2-2---4-----------|
D#|-----------------------------------------------------------------|

F#|-----------------------------------------------------------------|
C#|-4---4---4-4-4-4-4---4---4-4-4-4-7---7---7-7-7-7-7---7-7---7-7---|
G#|-----------------------------------------------------------------|
D#|-----------------------------------------------------------------|

F#|-----------------------------------------------------------------|
C#|-2---2---2-2-2-2-2---2---2-2-2-2-2---2---2-2-2-2-2---2---2-2-2-2-|
G#|-----------------------------------------------------------------|
D#|-----------------------------------------------------------------|

F#|----------------------------------------------------------------------|
C#|----------------------------------------------------------------------|
G#|-5---5-----------5---5------------5---5-----------5---5---------------|
D#|------------------------------------------------------------------2---|
Tabbed by Dave Vucko
comments
print report bad tab
1 comment total.
0 reply
PhilipBass wrote on January 8 2016, 11:22 am

No big deal, but Joe is playing the fill in 01:08 actually like this:

F#| ------------------------
C#| ------------------------
G#| 9-7-5-7-5-4-2-0------7/9
D#| ---------------2~-------

Saw this live a few months ago, but i would prefer your way, its more ergonomic^^

I want to post or [tab]
guest
You may want to rate the tab now too:
select rating
Please do not post tabs as comments. Select "correction" instead!