Oops, an error
Loading. Please wait.

Satellite Tab

version 3
version 3

Interactive

20,018 views 66 this week
6 commentsread comments
1 2 3 4 5
accurate
x 7
add to favorites
launch autoscroll
font size
0
reset
how to read this tab
guitar tuner
Tab Pro tools
  • play this tab
  • loop segment
  • change instrument
  • show fretboard
  • metronome
Autoscroll
slow
fast
+/-
esc
set tempo
stop
Contributor
Tuning
D A D G B E
RISE AGAINST - Satellite
Tabbed By: Unicorn Death
Email: albinojellyfish1@gmail.com

Tuning: Drop D (D A D G B E)
Guitar 1 (Clean)
Guitar 2 (Clean)
Guitar 3 (Distorted)


Strumming Pattern for Intro (String Emphasis)
E|---------------|        E|-----------|
B|---------------|        B|-----------|
G|--------10-10--|        G|------8-8--|
D|--10-10-10-----|  and   D|--8-8-6----|
A|--8-----8------|        A|--6---6----|
D|---------------|        D|--6---6----|
     D  U  D  U               D U D U



Intro
Guitar 1 (Clean)
E|------------------------------|-----------------------------|---------------------------|
B|------------------------------|-----------------------------|---------------------------|
G|--10 (alt. pick for 4 bars) --|::--10 (alt pick for 1 bar)--|--8 (alt pick for 1 bar) --|
D|--10                        --|::--10                     --|--6                      --|
A|--8                         --|----8                      --|--6                      --|
D|------------------------------|-----------------------------|--6------------------------|

Guitar 2 (Clean)
E|------------------------------|----------------------------|-------------------------|
B|------------------------------|------4vvvvvvv--------------|-------------------------|
G|::----------------------------|--3h5-----------------------|-------------------------|
D|::----------------------------|----------------------------|-------------------------|
A|------------------------------|----------------------------|-------------------------|
D|------------------------------|----------------------------|-------------------------|



Guitar 1 (Clean)
E|------------------------------|----------------------------|----------------------------|
B|------------------------------|----------------------------|----------------------------|
G|--8 (alt. pick for 1 bar)  ---|--10 (alt pick for 1 bar) --|--10 (alt pick for 1 bar) --|
D|--8                        ---|--10                      --|--10                      --|
A|--6                        ---|--8                       --|--8                       --|
D|------------------------------|--8-------------------------|----------------------------|

Guitar 2 (Clean)
E|------------------------------|----------------------------|-------------------------|
B|--9p8vvvvvvv------------------|----------------------------|------4vvvvvv------------|
G|------------------------------|----------------------------|--3h5--------------------|
D|------------------------------|----------------------------|-------------------------|
A|------------------------------|----------------------------|-------------------------|
D|------------------------------|----------------------------|-------------------------|



Guitar 1 (Clean)
E|------------------------------|----------------------------|----------------------------|
B|------------------------------|----------------------------|----------------------------|
G|--10 (alt. pick for 1 bar)  --|--8 (alt pick for 1 bar)  --|--8 (alt pick for 1 bar) -::|
D|--8                         --|--8                       --|--8                      -::|
A|--8                         --|--6                       --|--6                       --|
D|------------------------------|--6-------------------------|----------------------------|

Guitar 2 (Clean)
E|------------------------------|----------------------------|-------------------------|
B|------------------------------|----4-6vvv------------------|-------------------------|
G|------------------------------|--5--------3vvv-------------|-----------------------::|
D|------------------------------|----------------------------|-----------------------::|
A|------------------------------|----------------------------|-------------------------|
D|------------------------------|----------------------------|-------------------------|

((Intro Repeats))




End of Intro
Guitar 1 (Clean)
Still playing intro riff.

Guitar 2 (Clean)
E|------------------------------|
B|----4-6vvvvvvv----------------|
G|--5---------------------------|
D|------------------------------|
A|------------------------------|
D|------------------------------|

Guitar 3 (Distorted)
E|------------------------------|--------------|
B|------------------------------|--------------|
G|-------(((((     )))))--------|--------------|
D|-------(((((swell)))))--------|--88888888-8--|
A|-------(((((     )))))--------|--88888888-8--|
D|------------------------------|--88888888-8--|




Chorus 
Guitar 3 (Distorted)
E|------------------------------|----------------------------|
B|------------------------------|----------------------------|
G|----------------8-------------|----------------8----4--6---|
D|--3------6------8------8------|--3------6------8----4--6---|
A|--3------6------6------8------|--3------6------6----4--6---|
D|--3------6-------------8------|--3------6------------------|

Guitar 2 (Clean)
E|------------------------------|----------------------------------|
B|------------------------------|----------------------------------|
G|------------------------------|----------------------------------|
D|------------------------------|------------------10-------8------|
A|------------------------------|-----------------8--11-8--6-10-6--|
D|------------------------------|----------------------------------|



Guitar 3 (Distorted)
E|------------------------------|----------------------------|-----|
B|------------------------------|----------------------------|-----|
G|----------------8-------------|----------------8----4--6---|--10-|
D|--3------6------8------8------|--3------6------8----4--6---|--10-|
A|--3------6------6------8------|--3------6------6----4--6---|--8--|
D|--3------6-------------8------|--3------6------------------|-----|

Guitar 1 (Distorted)
E|----------------------------------|
B|----------------------------------|
G|--13--12--13--12--13--12--15--8---|
D|--x---x---x---x---x---x---x---x---|  x2
A|--11--10--11--10--11--10--13--6---|
D|----------------------------------|
This guitar is very hard to hear, but each chord is played four times as 32nd notes. 

Guitar 2 (Clean)
E|------------------------------|----------------------------------|
B|------------------------------|----------------------------------|
G|------------------------------|-------------------------------10-|
D|------------------------------|--------------------------10---10-|
A|------------------------------|-------------------------8--11-8--|
D|------------------------------|----------------------------------|




Post-Chorus
Guitar 3 (Distorted)
E|---------|
B|---------|
G|--5vvvv--|
D|--3vvvv--|
A|--3vvvv--|
D|--3vvvv--|

Guitar 2 (Clean)
E|-------------------------|
B|----------4/6vvvv--------|
G|--5-3--------------------|
D|------5-6---------3vvvv--|
A|-------------------------|
D|-------------------------|





Verse
Guitar 2 (Clean)
E|-------------------------------------|     E|------------------------------|
B|-----4vv----9p8vv-----4vv-----4-6vv--|     B|--6-4-6--6-4-6--6-4-6--6-6-4--|
G|--3h5--------------3h5-------5-------|     G|---5------5------5------3-----|
D|-------------------------------------| x2  D|------------------------------|
A|-------------------------------------|     A|------------------------------|
D|-------------------------------------|     D|------------------------------|


Guitar 2 (Clean)
E|----------------------------------|
B|--6-4-6--6-4-6--6-4-4b6--6-4-4b6--|
G|---5------5-----------------------|
D|----------------------------------|
A|----------------------------------|
D|----------------------------------|

Guitar 3 (Distorted)
E|----------------------------------|--x\\\\\
B|----------------------------------|--x\\\\\
G|--5------8------8--------10-------|--x\\\\\ pick
D|--3------6------8--------8--------|--x\\\\\ slide
A|--3------6------6--------8--------|--x\\\\\
D|--3------6---------------8--------|--x\\\\\





Chorus 
Guitar 3 (Distorted)
E|------------------------------|----------------------------|
B|------------------------------|----------------------------|
G|----------------8-------------|----------------8----4--6---|
D|--3------6------8------8------|--3------6------8----4--6---|
A|--3------6------6------8------|--3------6------6----4--6---|
D|--3------6-------------8------|--3------6------------------|

Guitar 2 (Clean)
E|------------------------------|----------------------------------|
B|------------------------------|----------------------------------|
G|------------------------------|----------------------------------|
D|------------------------------|------------------10-------8------|
A|------------------------------|-----------------8--11-8--6-10-6--|
D|------------------------------|----------------------------------|



Guitar 3 (Distorted)
E|------------------------------|----------------------------|-----|
B|------------------------------|----------------------------|-----|
G|----------------8-------------|----------------8----4--6---|--10-|
D|--3------6------8------8------|--3------6------8----4--6---|--10-|
A|--3------6------6------8------|--3------6------6----4--6---|--8--|
D|--3------6-------------8------|--3------6------------------|-----|

Guitar 1 (Distorted)
E|----------------------------------|
B|----------------------------------|
G|--13--12--13--12--13--12--15--8---|
D|--x---x---x---x---x---x---x---x---|  x2
A|--11--10--11--10--11--10--13--6---|
D|----------------------------------|
This guitar is very hard to hear, but each chord is played four times as 32nd notes. 

Guitar 2 (Clean)
E|------------------------------|----------------------------------|
B|------------------------------|----------------------------------|
G|------------------------------|-------------------------------10-|
D|------------------------------|--------------------------10---10-|
A|------------------------------|-------------------------8--11-8--|
D|------------------------------|----------------------------------|




Bridge 1
Guitar 3 (Distorted)
E|------------|
B|------------|
G|--6----8----|
D|--6----8----| x2 (play each 16 times)
A|--4----6----|
D|------------|

Guitar 2 (Clean)
E|------4-6-8vv------4-6v-4------|------4-6-8vv-6-4-------|
B|--4-6----------4-6--------4-6--|--4-6--------------4vv--|
G|-------------------------------|------------------------|
D|-------------------------------|------------------------|
A|-------------------------------|------------------------|
D|-------------------------------|------------------------|




Bridge 2
Guitar 2 (Clean)
E|--8---8-----------|
B|--9---8-----------|
G|--10--10--13--10--|
D|--10--10--11--8---|  x4
A|--8---8---11--8---|
D|----------11--8---|

Guitar 1 (Clean)
Plays the same riff with delay/phaser.




Bridge 3
Guitar 3 (Distorted)
E|----------------------|                       
B|----------------------|
G|-------6----8---------|
D|--3----6----8----8----|  x2 (play each 4 times)  
A|--3----4----6----8----|
D|--3--------------8----|


Guitar 2 (Clean)
E|-------------------6-8------------------------|
B|-------9-----9-8-6------------9-----9-8-------|
G|--10----10---------------10----10-------10-8--|
D|----10----10---------------10----10-----------|
A|----------------------------------------------|
D|----------------------------------------------|

Guitar 3 (Distorted)
E|--------------------|-------------------------|
B|--------------------|-------------------------|
G|--6-------8---------|--6-------8--------------|
D|--6-------8---------|--6-------8--------------|
A|--4-------6---------|--4-------6--------------|
D|--------------------|-------------------------|




Chorus
Guitar 3 (Distorted)
E|------------------------------------------------|
B|-----                     ----------------------|
G|-----     (drum solo)     -----------3----------|    (feedback)
D|--3--                     ------3------5-6-1-3--|
A|--3--                     ------3---------------|
D|--3-------------------------111-3---------------|


Guitar 3 (Distorted)
E|--------------------------------x\\\\\\\\\\\\\
B|--------------------------------x\\\\\\\\\\\\\
G|-------------------8------------x\\\\\\\\\\\\\   pick
D|--3--------6-------8------------x\\\\\\\\\\\\\   slide
A|--3--------6-------6------------x\\\\\\\\\\\\\
D|--3--------6--------------------x\\\\\\\\\\\\\

Guitar 2 (Clean)
E|---------------------------------------------|
B|-------------------8-------15--13-13-12--10--|
G|----5-6-----5-8----8-------x---x--x--x---x---|
D|--6-----6--6----6--6-------13--11-11-10--8---|
A|---------------------------------------------|
D|---------------------------------------------|
                     "...shine your light on me"




Chorus 
Guitar 3 (Distorted)
E|------------------------------|----------------------------|
B|------------------------------|----------------------------|
G|----------------8-------------|----------------8----4--6---|
D|--3------6------8------8------|--3------6------8----4--6---|
A|--3------6------6------8------|--3------6------6----4--6---|
D|--3------6-------------8------|--3------6------------------|


Guitar 3 (Distorted)
E|------------------------------|
B|------------------------------|
G|----------------8-------------|
D|--3------6------8------8------|
A|--3------6------6------8------|
D|--3------6-------------8------|

Guitar 1 (Distorted)
E|----------------------------------|
B|----------------------------------|
G|--13--12--13--12--13--12--15--8---|
D|--x---x---x---x---x---x---x---x---|  x2
A|--11--10--11--10--11--10--13--6---|
D|----------------------------------|
This guitar is very hard to hear, but each chord is played four times as 32nd notes. 




Outro
Guitar 3 (Distorted)
E|------------------------------------------------------------|
B|------------------------------------------------------------|
G|----------------8------66-xxxx-66-xxxx-66-xxxx--66-xxxx-----|
D|--3------6------8------66-xxxx-66-xxxx-66-xxxx--66-xxxx--3--|
A|--3------6------6------44-xxxx-44-xxxx-44-xxxx--44-xxxx--3--|
D|--3------6-----------------------------------------------3--|




Key:
v - vibrato
h - hammer on 
p - pull off
x - mute
X\\\\ - pick slide
comments
print report bad tab
6 comments total. Showing first comments.
+1 reply
Cdyt7717 wrote on April 7 2011, 09:43 pm

the song is played down a half step.. im pretty sure.

0 reply
Unicorn Death wrote on April 10 2011, 01:19 am

Second to last chorus correction:

Guitar 2 (Clean)
----------------------------|
----------16--14-15-13--11--|
----------x---x--x--x---x---|
----------13--11-11-10--8---|
----------------------------|
----------------------------|
"...shine your light on me"

If the song was in Eb tuning, the intro chords don't sound right.

+1 reply
jacks2axe wrote on April 12 2011, 05:55 pm

it is in Eb, and the intro chords that are posted in this tab are not correct

I want to post or [tab]
guest
You may want to rate the tab now too:
select rating
Please do not post tabs as comments. Select "correction" instead!