Oops, an error
Loading. Please wait.
We have an official Satellite tab made by UG professional guitarists. Check out the tab »
×

Satellite tab

version 6
version 6

Whole song

758 views 1 this week
1 commentread comment
1 2 3 4 5
x 3
add to favorites
×
Save as Personal and add changes to this tab that will be seen only by you. Learn more ›
×
You can save this tab as Personal to edit and correct it or add notes. All changes will be seen only by you. Learn more »
launch autoscroll
font size
0
reset
how to read this tab
guitar tuner
edit
Autoscroll
slow
fast
+/-
esc
set tempo
stop
Author
About this tab version
Includes both guitar's to close detail. Was this info helpful? Yes No
-------------------------------------------------------------------------------
                 Satellite - Rise Against
-------------------------------------------------------------------------------
Tabbed by: CatWithAMustach
E-mail:brentvanderpol@gmail.com

Sorry if it’s a bit hard to read, I am trying a new format and I don’t know how hard it is to read.
************************************
| \   Slide down
| /   Slide up
| <    Accented note
| p   Pull-off
| h   Hammer-on
| .   Palm mutes
************************************

Tuning: Eb Standard (½ step down)

Intro (0:00): (Overdrive - Rhythm Guitar) The pattern is very fast (16th notes)
          <  <        <  <        <  <        <  <
eb|-------------------------------------------------|
Bb|-------------------------------------------------|
Gb|-11-11-11-11-11-11-11-11-11-11-11-11-11-11-11-11-|
Db|-11-11-11-11-11-11-11-11-11-11-11-11-11-11-11-11-| x4
Ab|-9--9--9--9--9--9--9--9--9--9--9--9--9--9--9--9--|
Eb|-------------------------------------------------|

Second Intro (0:07): (Distortion - Lead Guitar)

eb|-------------5p4-------------------------------|
Bb|-----5---------------------5----------5h7------|
Gb|-5/6-------------------5/6----------6--------4-|
Db|-----------------------------------------------| x2
Ab|-----------------------------------------------|  (Don’t play the last 4 second time)
Eb|-----------------------------------------------|

(Overdrive - Rhythm Guitar)
          <  <           <  <        <  <        <  <
eb|---------------------------------------------------|
Bb|---------------------------------------------------|
Gb|-11-11-11-11-11-11-11-11-11-11-11-11-11-11-11-11-11|
Db|-11-11-11-11-11-11-11-11-11-11-11-11-11-11-11-11-11|
Ab|-9--9--9--9--9--9--9--9--9--9--9--9--9--9--9--9--9-|
Eb|---------------------------------------------------|

          <  <           <  <        <  <        <  <
eb|----------------------------------------------------|
Bb|----------------------------------------------------|
Gb|-9--9--9--9--9--9--9--9--9--9--9--9--9--9--9--9--9--|
Db|-11-11-11-11-11-11-11-11-11-11-11-11-11-11-11-11-11-|
Ab|-0--0--0--0--0--0--0--0--0--0--0--0--0--0--0--0--0--|
Eb|----------------------------------------------------|


          <  <           <  <        <  <        <  <
eb|----------------------------------------------------|
Bb|----------------------------------------------------|
Gb|-13-13-13-13-13-13-13-13-13-13-13-13-13-13-13-13-13-|
Db|----------------------------------------------------|
Ab|-11-11-11-11-11-11-11-11-11-11-11-11-11-11-11-11-11-|
Eb|-0--0--0--0--0--0--0--0--0--0--0--0--0--0--0--0--0--|

          <  <           <  <        <  <        <  <
eb|----------------------------------------------------|
Bb|----------------------------------------------------|
Gb|-11-11-11-11-11-11-11-11-11-11-11-11-11-11-11-11-11-|
Db|-9--9--9--9--9--9--9--9--9--9--9--9--9--9--9--9--9--|
Ab|-9--9--9--9--9--9--9--9--9--9--9--9--9--9--9--9--9--|
Eb|----------------------------------------------------|
(Rhythm Guitar plays this whole section 4 times, and on the fourth time play this instead 
of the last measure:) 
                    <
eb|-------------------|
Bb|-------------------|
Gb|-------------------|
Db|-9-9-9-9-9-9-9-9-9-|
Ab|-9-9-9-9-9-9-9-9-9-|
Eb|-7-7-7-7-7-7-7-7-7-|

Chorus (0:36): (Distortion - Lead Guitar AND Rhythm Guitar)

eb|-------------------------------------------------------|
Bb|-------------------------------------------------------|
Gb|-------------------------------------------------------|
Db|-4--4--4-4-4--4-4-4--4-4-4---7--7--7-7-7--7-7-7--7-7-7-|
Ab|-4--4--4-4-4--4-4-4--4-4-4---7--7--7-7-7--7-7-7--7-7-7-|
Eb|-2--2--2-2-2--2-2-2--2-2-2---5--5--5-5-5--5-5-5--5-5-5-|

eb|-------------------------------------------------------|
Bb|-------------------------------------------------------|
Gb|-9--9--9-9-9--9-9-9--9-9-9-----------------------------|
Db|-9--9--9-9-9--9-9-9--9-9-9---9--9--9-9-9--9-9-9--9-9-9-|
Ab|-7--7--7-7-7--7-7-7--7-7-7---9--9--9-9-9--9-9-9--9-9-9-|
Eb|-----------------------------7--7--7-7-7--7-7-7--7-7-7-|

(0:41): (Distortion - Lead Guitar)

eb|-------------------------------------------------------|
Bb|-------------------------------------------------------|
Gb|-------------------------------------------------------|
Db|-4--4--4-4-4--4-4-4--4-4-4---7--7--7-7-7--7-7-7--7-7-7-|
Ab|-4--4--4-4-4--4-4-4--4-4-4---7--7--7-7-7--7-7-7--7-7-7-|
Eb|-2--2--2-2-2--2-2-2--2-2-2---5--5--5-5-5--5-5-5--5-5-5-|

eb|------------------------------------------------------|
Bb|------------------------------------------------------|
Gb|-9--9--9-9-9--9-9-9--9-9-9---7--7--7-7-7--9--9--9-9-9-|
Db|-9--9--9-9-9--9-9-9--9-9-9---7--7--7-7-7--9--9--9-9-9-|
Ab|-7--7--7-7-7--7-7-7--7-7-7---5--5--5-5-5--7--7--7-7-7-|
Eb|------------------------------------------------------|

(Distortion - Rhythm Guitar)

eb|-------------------------------------------------------|
Bb|-------------------------------------------------------|
Gb|-------------------------------------------------------|
Db|-4--4--4-4-4--4-4-4--4-4-4---7--7--7-7-7--7-7-7--7-7-7-|
Ab|-4--4--4-4-4--4-4-4--4-4-4---7--7--7-7-7--7-7-7--7-7-7-|
Eb|-2--2--2-2-2--2-2-2--2-2-2---5--5--5-5-5--5-5-5--5-5-5-|

eb|-------------------------------------------------------|
Bb|-------------------------------------------------------|
Gb|-9--9--9-9-9--9-9-9--9-9-9---6--6--6-6-6---9--9--9-9-9-|
Db|-9--9--9-9-9--9-9-9--9-9-9---7--7--7-7-7---9--9--9-9-9-|
Ab|-7--7--7-7-7--7-7-7--7-7-7---5--5--5-5-5---7--7--7-7-7-|
Eb|-----------------------------5--5--5-5-5---7--7--7-7-7-|

(0:50): (Distortion - Lead Guitar)

eb|---------------------------------------------------|
Bb|---------------------------------------------------|
Gb|-13/14-13---13/14-13---13/12-13\9--7--6--11-13--11-|
Db|---------------------------------------------------|
Ab|-11/12-11---11/12-11---11/12-11\7--5--4--9--11--9--|
Eb|---------------------------------------------------|

(Distortion - Rhythm Guitar)

eb|-------------------------------------------------------|
Bb|-------------------------------------------------------|
Gb|-------------------------------------------------------|
Db|-4--4--4-4-4--4-4-4--4-4-4---7--7--7-7-7--7-7-7--7-7-7-|
Ab|-4--4--4-4-4--4-4-4--4-4-4---7--7--7-7-7--7-7-7--7-7-7-|
Eb|-2--2--2-2-2--2-2-2--2-2-2---5--5--5-5-5--5-5-5--5-5-5-|

eb|-------------------------------------------------------|
Bb|-------------------------------------------------------|
Gb|-9--9--9-9-9--9-9-9--9-9-9-----------------------------|
Db|-9--9--9-9-9--9-9-9--9-9-9---9--9--9-9-9--9-9-9--9-9-9-|
Ab|-7--7--7-7-7--7-7-7--7-7-7---9--9--9-9-9--9-9-9--9-9-9-|
Eb|-----------------------------7--7--7-7-7--7-7-7--7-7-7-|

(0:58): (Distortion - Lead Guitar) Again, very fast.

eb|----------------------------------------------------------------------------|
Bb|----------------------------------------------------------------------------|
Gb|-14--14--14-14-14---13--13--13-13-13---14--14--14-14-14---13--13--13-13-13--|
Db|----------------------------------------------------------------------------|
Ab|-12--12--12-12-12---11--11--11-11-11---12--12--12-12-12---11--11--11-11-11--|
Eb|----------------------------------------------------------------------------|

eb|-------------------------------------------------------------|
Bb|-------------------------------------------------------------|
Gb|-16--16--16-16-16---13--13--13-13-13---18--18--18-18-18---13-|
Db|-------------------------------------------------------------|
Ab|-14--14--14-14-14---11--11--11-11-11---16--16--16-16-16---11-|
Eb|-------------------------------------------------------------|

(Distortion - Rhythm Guitar)

eb|-------------------------------------------------------|
Bb|-------------------------------------------------------|
Gb|-------------------------------------------------------|
Db|-4--4--4-4-4--4-4-4--4-4-4---7--7--7-7-7--7-7-7--7-7-7-|
Ab|-4--4--4-4-4--4-4-4--4-4-4---7--7--7-7-7--7-7-7--7-7-7-|
Eb|-2--2--2-2-2--2-2-2--2-2-2---5--5--5-5-5--5-5-5--5-5-5-|

eb|---------------------------------------------|
Bb|---------------------------------------------|
Gb|-9--9--9-9-9--9-9-9--9-9-9---6--6--6-6-6---9-|
Db|-9--9--9-9-9--9-9-9--9-9-9---7--7--7-7-7---9-|
Ab|-7--7--7-7-7--7-7-7--7-7-7---5--5--5-5-5---7-|
Eb|-----------------------------5--5--5-5-5---7-|

Post-Chorus (1:05): (Distortion - Lead Guitar)

eb|--------------------------------------------------------------|
Bb|--------------------------------------------------------------|
Gb|-11-11-11----------------------------9----9/11----------------|
Db|-11-11-11--------11-11-11-9-----------------------------------|
Ab|-9--9--9--------------------11-12---------------------9-------|
Eb|--------------------------------------------------------------|

(Distortion - Rhythm Guitar)

eb|--------------------------------------------------------------|
Bb|--------------------------------------------------------------|
Gb|--------------------------------------------------------------|
Db|-4------------------------------------------------------------|
Ab|-4------------------------------------------------------------|
Eb|-2------------------------------------------------------------|

Verse (1:11): (Distortion - Lead Guitar)

eb|--------------5p4\-------------------------|
Bb|------5---------------------5----------5h7-|
Gb|--5/6-------------------4/6----------6-----|
Db|-------------------------------------------|
Ab|-------------------------------------------|
Eb|-------------------------------------------|

(Distortion - Rhythm Guitar)

eb|--------------------------------------------|
Bb|--------------------------------------------|
Gb|--------------------------------------------|
Db|--------------------------------------------|
Ab|4/9----------7----------9--------------7----|
Eb|--------------------------------------------|

(1:26): (Distortion - Lead Guitar) Slower, quarter notes.
                                                                       Pickslide
eb|----------------------------------------------------------------------------|
Bb|-7---5-7-7---5-7-7---5-7-7---77-5-7---5-7-7---5-7-7-5-5-7-7-5-7-----////////|
Gb|---6-------6-------6-------4--------6-------6-----------------------////////|
Db|--------------------------------------------------------------------////////|
Ab|----------------------------------------------------------------------------|
Eb|----------------------------------------------------------------------------|

(Overdrive - Rhythm Guitar)
          <  <           <  <        <  <        <  <
eb|---------------------------------------------------|
Bb|---------------------------------------------------|
Gb|-11-11-11-11-11-11-11-11-11-11-11-11-11-11-11-11-11|
Db|-11-11-11-11-11-11-11-11-11-11-11-11-11-11-11-11-11|
Ab|-9--9--9--9--9--9--9--9--9--9--9--9--9--9--9--9--9-|
Eb|---------------------------------------------------|

          <  <           <  <        <  <        <  <
eb|----------------------------------------------------|
Bb|----------------------------------------------------|
Gb|-9--9--9--9--9--9--9--9--9--9--9--9--9--9--9--9--9--|
Db|-11-11-11-11-11-11-11-11-11-11-11-11-11-11-11-11-11-|
Ab|-0--0--0--0--0--0--0--0--0--0--0--0--0--0--0--0--0--|
Eb|----------------------------------------------------|

          <  <           <  <        <  <        <  <
eb|----------------------------------------------------|
Bb|----------------------------------------------------|
Gb|-13-13-13-13-13-13-13-13-13-13-13-13-13-13-13-13-13-|
Db|----------------------------------------------------|
Ab|-11-11-11-11-11-11-11-11-11-11-11-11-11-11-11-11-11-|
Eb|-0--0--0--0--0--0--0--0--0--0--0--0--0--0--0--0--0--|

          <  <           <  <        <  <        <  <
eb|----------------------------------------------------|
Bb|----------------------------------------------------|
Gb|-11-11-11-11-11-11-11-11-11-11-11-11-11-11-11-11-11-|
Db|-9--9--9--9--9--9--9--9--9--9--9--9--9--9--9--9--9--|
Ab|-9--9--9--9--9--9--9--9--9--9--9--9--9--9--9--9--9--|
Eb|----------------------------------------------------|
(Rhythm Guitar plays this whole section 2 times, and on the fourth 
time play this instead of the last measure:) 
              <
eb|-------------------|
Bb|-------------------|
Gb|-------------------|
Db|-9-9-9-9-9-9-9-9-9-|
Ab|-9-9-9-9-9-9-9-9-9-|
Eb|-7-7-7-7-7-7-7-7-7-|

Second Chorus (1:40): (Distortion - Lead Guitar)

eb|-------------------------------------------------------|
Bb|-------------------------------------------------------|
Gb|-------------------------------------------------------|
Db|-4--4--4-4-4--4-4-4--4-4-4---7--7--7-7-7--7-7-7--7-7-7-|
Ab|-4--4--4-4-4--4-4-4--4-4-4---7--7--7-7-7--7-7-7--7-7-7-|
Eb|-2--2--2-2-2--2-2-2--2-2-2---5--5--5-5-5--5-5-5--5-5-5-|
                                |_______________________________ 
eb|-------------------------------------------------------|     |
Bb|-------------------------------------------------------|     |
Gb|-9--9--9-9-9--9-----16--13--14--9--6-------------------|     |
Db|-9--9--9-9-9--9--------------------4-------------------| x2 Start here second time
Ab|-7--7--7-7-7--7-----14--11--12--7--4-------------------|
Eb|-------------------------------------------------------|

(Distortion - Rhythm Guitar)

eb|-------------------------------------------------------|
Bb|-------------------------------------------------------|
Gb|-------------------------------------------------------|
Db|-4--4--4-4-4--4-4-4--4-4-4---7--7--7-7-7--7-7-7--7-7-7-|
Ab|-4--4--4-4-4--4-4-4--4-4-4---7--7--7-7-7--7-7-7--7-7-7-|
Eb|-2--2--2-2-2--2-2-2--2-2-2---5--5--5-5-5--5-5-5--5-5-5-|

eb|-------------------------------------------------------|
Bb|-------------------------------------------------------|
Gb|-9--9--9-9-9--9-9-9--9-9-9-----------------------------|
Db|-9--9--9-9-9--9-9-9--9-9-9---9--9--9-9-9--9-9-9--9-9-9-|
Ab|-7--7--7-7-7--7-7-7--7-7-7---9--9--9-9-9--9-9-9--9-9-9-|
Eb|-----------------------------7--7--7-7-7--7-7-7--7-7-7-|

eb|-------------------------------------------------------|
Bb|-------------------------------------------------------|
Gb|-------------------------------------------------------|
Db|-4--4--4-4-4--4-4-4--4-4-4---7--7--7-7-7--7-7-7--7-7-7-|
Ab|-4--4--4-4-4--4-4-4--4-4-4---7--7--7-7-7--7-7-7--7-7-7-|
Eb|-2--2--2-2-2--2-2-2--2-2-2---5--5--5-5-5--5-5-5--5-5-5-|

eb|-------------------------------------------------------|
Bb|-------------------------------------------------------|
Gb|-9--9--9-9-9--9-9-9--9-9-9---6--6--6-6-6---9--9--9-9-9-|
Db|-9--9--9-9-9--9-9-9--9-9-9---7--7--7-7-7---9--9--9-9-9-| x2 Whole Section
Ab|-7--7--7-7-7--7-7-7--7-7-7---5--5--5-5-5---7--7--7-7-7-|
Eb|-----------------------------5--5--5-5-5---7--7--7-7-7-|

(1:55): (Distortion - Lead Guitar)

eb|---------------------------------------------------|
Bb|---------------------------------------------------|
Gb|-13/14-13---13/14-13---13/12-13\9--7--6--11-13--11-|
Db|---------------------------------------------------|
Ab|-11/12-11---11/12-11---11/12-11\7--5--4--9--11--9--|
Eb|---------------------------------------------------|

eb|---------------------------------------------------------------------------|
Bb|---------------------------------------------------------------------------|
Gb|-14--14--14-14-14---13--13--13-13-13---14--14--14-14-14---13--13--13-13-13-|
Db|---------------------------------------------------------------------------|
Ab|-12--12--12-12-12---11--11--11-11-11---12--12--12-12-12---11--11--11-11-11-|
Eb|---------------------------------------------------------------------------|

eb|-----------------------------------------------------------------|
Bb|-----------------------------------------------------------------|
Gb|-16--16--16-16-16---13--13--13-13-13---7--7--7-7-7---9--9--9-9-9-|
Db|---------------------------------------7--7--7-7-7---9--9--9-9-9-|
Ab|-14--14--14-14-14---11--11--11-11-11---5--5--5-5-5---7--7--7-7-7-|
Eb|-----------------------------------------------------------------|

(2:08): (Distortion - Lead Guitar)

eb|----------------9---------------------------------------------9-------------------|
Bb|--------10--12------------------10--12----9-----------10--12-----12--10---9-------|
Gb|-9--11-------------------9--11-----------------9--11------------------------------|
Db|----------------------------------------------------------------------------------|
Ab|----------------------------------------------------------------------------------|
Eb|----------------------------------------------------------------------------------|

(Distortion - Rhythm Guitar)

eb|-----------------------------------------------------------------|
Bb|-----------------------------------------------------------------|
Gb|-7-7-7-7-7-7-7-7-7-7-7-7-7-7-7-7-9-9-9-9-9-9-9-9-9-9-9-9-9-9-9-9-|
Db|-7-7-7-7-7-7-7-7-7-7-7-7-7-7-7-7-9-9-9-9-9-9-9-9-9-9-9-9-9-9-9-9-|
Ab|-5-5-5-5-5-5-5-5-5-5-5-5-5-5-5-5-7-7-7-7-7-7-7-7-7-7-7-7-7-7-7-7-|
Eb|-----------------------------------------------------------------|

eb|-----------------------------------------------------------------|
Bb|-----------------------------------------------------------------|
Gb|-7-7-7-7-7-7-7-7-7-7-7-7-7-7-7-7-9-------------------------------|
Db|-7-7-7-7-7-7-7-7-7-7-7-7-7-7-7-7-9-------------------------------|
Ab|-5-5-5-5-5-5-5-5-5-5-5-5-5-5-5-5-7-------------------------------|
Eb|-----------------------------------------------------------------|

Interlude (2:22): (Overdrive - Rhythm Guitar)

eb|----------------------|
Bb|-10----9-----10-------|
Gb|-11----11----9-----11-|
Db|-11----11----9-----9--| x4 (Lead Guitar does a pickslide on 4th repeat)
Ab|-------------------9--|
Eb|----------------------|

Build-up (2:41): (Distortion - Lead Guitar AND Rhythm Guitar)

eb|---------------------------------|
Bb|---------------------------------|
Gb|---------7-7-7-7-9-9-9-9---------|
Db|-4-4-4-4-7-7-7-7-9-9-9-9-9-9-9-9-| Lead Guitar x2
Ab|-4-4-4-4-5-5-5-5-7-7-7-7-9-9-9-9-| Rhythm Guitar x4
Eb|-2-2-2-2-5-5-5-5-7-7-7-7-7-7-7-7-|

(2:51): (Distortion - Lead Guitar)

eb|--------------------9--------------------------------9---------------|
Bb|-10--10--10-----12------12--10p9--10--10--10-----12------12--10p9-10-|
Gb|---11--11--11-11--11--11--11--------11--11--11-11--11--11--11--------|
Db|---------------------------------------------------------------------|
Ab|---------------------------------------------------------------------|
Eb|---------------------------------------------------------------------|
                                                                     <
eb|---------------------7-7------------------7--7--5--5--4--4-------------|
Bb|-7--7--7--7-10p9--10-----10-9-7--7--7--7--7--7--7--7--7--7-------------|
Gb|---7--7--7-------9--------------7--7--7--------------------------------|
Db|------------------------------------------------------------------4----|
Ab|------------------------------------------------------------------4----|
Eb|------------------------------------------------------------------2----|

(3:00) (Distortion - Rhythm Guitar)
                                                          <       <
eb|--------------------------------------------------------------------|
Bb|--------------------------------------------------------------------|
Gb|-7-7-7-7-7-7-7-7-9-9-9-9-9-9-9-9-7-7-7-7-7-7-7-9-9-9-9-9------------|
Db|-7-7-7-7-7-7-7-7-9-9-9-9-9-9-9-9-7-7-7-7-7-7-7-9-9-9-9-9-------4----|
Ab|-5-5-5-5-5-5-5-5-7-7-7-7-7-7-7-7-5-5-5-5-5-5-5-7-7-7-7-7-------4----|
Eb|---------------------------------------------------------------2----|

Post-Build-up (3:16): (Distortion - Lead Guitar AND Rhythm Guitar)
       <
eb|---------|
Bb|---------|
Gb|---------|
Db|-------4-| 
Ab|-------4-|
Eb|-0-0-0-2-|
    . . . <- Palm Mutes

(3:22) (Distortion - Lead Guitar)

eb|---------------------|
Bb|---------------------|
Gb|-16--13--14--9--6----|
Db|----------------4----|
Ab|-14--11--12--7--4----|
Eb|---------------------|


(3:22) (Distortion - Rhythm Guitar)

eb|---------------------|
Bb|---------------------|
Gb|---------------------|
Db|----------------4----|
Ab|----------------4----|
Eb|----------------2----|

(3:30) (Distortion - Lead Guitar)

eb|---------------------------------------------------|
Bb|-----2---------5-----------12----------------------|
Gb|---2---2-----6---6------13----13--16--13--14--9--6-|
Db|-4-------4/7-------7/14--------------------------4-|
Ab|----------------------------------14--11--12--7--4-|
Eb|---------------------------------------------------|

(Distortion - Rhythm Guitar)

eb|--------------------------------------------------------------|
Bb|--------------------------------------------------------------|
Gb|-2--------6----------9------------7--7-7-7-7-7---9--9-9-9-9-9-|
Db|-4--------7----------9------------7--7-7-7-7-7---9--9-9-9-9-9-|
Ab|-4--------7----------7------------5--5-5-5-5-5---7--7-7-7-7-7-|
Eb|-2--------5----------7----------------------------------------|

Chorus (3:38): (Distortion - Lead Guitar)

eb|---------------------------------------------------|
Bb|---------------------------------------------------|
Gb|-13/14-13---13/14-13---13/12-13\9--7--6--11-13--11-|
Db|---------------------------------------------------|
Ab|-11/12-11---11/12-11---11/12-11\7--5--4--9--11--9--|
Eb|---------------------------------------------------|

eb|---------------------------------------------------------------------------|
Bb|---------------------------------------------------------------------------|
Gb|-14--14--14-14-14---13--13--13-13-13---14--14--14-14-14---13--13--13-13-13-|
Db|---------------------------------------------------------------------------|
Ab|-12--12--12-12-12---11--11--11-11-11---12--12--12-12-12---11--11--11-11-11-|
Eb|---------------------------------------------------------------------------|

    (Very fast, 16th notes)
eb|---------------------------------------------------------------|
Bb|---------------------------------------------------------------|
Gb|-9-9-9-9-9-9-9-9-9-9-9-9-9-9-9-9-9-9-9-9-9-9-9-9-9-9-9-9-9-9-9-|
Db|-9-9-9-9-9-9-9-9-9-9-9-9-9-9-9-9-9-9-9-9-9-9-9-9-9-9-9-9-9-9-9-|
Ab|-7-7-7-7-7-7-7-7-7-7-7-7-7-7-7-7-7-7-7-7-7-7-7-7-7-7-7-7-7-7-7-| x2 This measure only
Eb|---------------------------------------------------------------|

(Distortion - Rhythm Guitar)

eb|-------------------------------------------------------|
Bb|-------------------------------------------------------|
Gb|-------------------------------------------------------|
Db|-4--4--4-4-4--4-4-4--4-4-4---7--7--7-7-7--7-7-7--7-7-7-|
Ab|-4--4--4-4-4--4-4-4--4-4-4---7--7--7-7-7--7-7-7--7-7-7-|
Eb|-2--2--2-2-2--2-2-2--2-2-2---5--5--5-5-5--5-5-5--5-5-5-|

eb|-------------------------------------------------------|
Bb|-------------------------------------------------------|
Gb|-9--9--9-9-9--9-9-9--9-9-9-----------------------------|
Db|-9--9--9-9-9--9-9-9--9-9-9---9--9--9-9-9--9-9-9--9-9-9-|
Ab|-7--7--7-7-7--7-7-7--7-7-7---9--9--9-9-9--9-9-9--9-9-9-|
Eb|-----------------------------7--7--7-7-7--7-7-7--7-7-7-|

eb|-------------------------------------------------------|
Bb|-------------------------------------------------------|
Gb|-------------------------------------------------------|
Db|-4--4--4-4-4--4-4-4--4-4-4---7--7--7-7-7--7-7-7--7-7-7-|
Ab|-4--4--4-4-4--4-4-4--4-4-4---7--7--7-7-7--7-7-7--7-7-7-|
Eb|-2--2--2-2-2--2-2-2--2-2-2---5--5--5-5-5--5-5-5--5-5-5-|

eb|-------------------------------------------------------|
Bb|-------------------------------------------------------|
Gb|-9--9--9-9-9--9-9-9--9-9-9--9-9-9--9-9-9--9-9-9--9-9-9-|
Db|-9--9--9-9-9--9-9-9--9-9-9--9-9-9--9-9-9--9-9-9--9-9-9-|
Ab|-7--7--7-7-7--7-7-7--7-7-7--7-7-7--7-7-7--7-7-7--7-7-7-|
Eb|-------------------------------------------------------|

Outro (3:52): (Distortion - Lead Guitar)

eb|-------------------------------------------|
Bb|-------------------------------------------|
Gb|-6--6-xxx--6--6-xxx--6--6-xxx--6--6--------|
Db|-7--7-xxx--7--7-xxx--7--7-xxx--7--7------4-|
Ab|-5--5-xxx--5--5-xxx--5--5-xxx--5--5--222-4-|
Eb|-5--5-xxx--5--5-xxx--5--5-xxx--5--5--000-2-|
          | Three hand muted notes       

(Distortion - Rhythm Guitar)

eb|-------------------------------------------|
Bb|-------------------------------------------|
Gb|-7--7-xxx--7--7-xxx--7--7-xxx--7--7--------|
Db|-7--7-xxx--7--7-xxx--7--7-xxx--7--7------4-|
Ab|-5--5-xxx--5--5-xxx--5--5-xxx--5--5--222-4-|
Eb|-------------------------------------000-2-|

            
            
Suggest correction
Creating personal tab
Creating personal tab
You can edit any tab online and save it as your Personal.

You can edit, replace or remove any tab part or add personal notes – all changes will be seen only by you.

Personal tabs can be accessed anytime from any device, even offline.
Learn more »
Give kudos to tab author, rate the tab!
1 2 3 4 5
comments
print report bad tab
1 comment total.
0 reply
Raju345PL 38 Dec 21, 2015 05:11 AM

It's little hard to read this but tab is good. How did you hear all this in the song? Sometimes lead guitar is very quite.

guest
You may want to rate the tab now too:
select rating
Wanna post a correction for this tab? Suggest correction