Oops, an error
Loading. Please wait.

Savior Tab

version 1
version 1

Acoustic

Whole song

Interactive

86,787 views 84 this week
3 commentsread comments
1 2 3 4 5
excellent!
x 29
add to favorites
launch autoscroll
font size
0
reset
how to read this tab
guitar tuner
Autoscroll
slow
fast
+/-
esc
set tempo
stop
Help us to improve Ultimate-Guitar.com Take our survey!
×
Author
Difficulty
philahn 63
intermediate
[Philahn's Acoustic Version] of "Savior" by Rise Against

Acoustic cover can be seen here:
http://www.youtube.com/watch?v=-SZQ8T9JcO0


Tuning: Standard/Capo #1



[Intro]

 (Palm Mute)
e|------------------|----------------------|--------------------|-------------------------|
B|------------------|----------------------|--------------------|-------------------------|
G|------------------|----------------------|--------------------|-------------------------|
D|-10-10-10-6-6-6-8-|-8-10-10-8-8-6-6-6-10-|--10-10-10-10-10-10-|-10-10-10-10-10-10-10-10-|
A|--8--8--8-8-8-8-8-|-8--8--8-8-8-8-8-8-11-|--11-11-11-11-11-11-|-11-11-11-11-11-11-11-11-|
E|------------------|----------------------|--------------------|-------------------------|
      X  X   X X     X     X   X   X         X  X  X  X  X  X    X  X  X  X  X  X  X  X
"It kills me not to know this..."


e|------------------|---------------------|----------------|----------------|
B|------------------|---------------------|----------------|----------------|
G|------------------|---------------------|----------------|----------------|
D|-10-10-10-6-6-6-8-|-8-10-10-8-8-6-6-6-6-|---6-6-6-6-6-6--|-5-5-5-5-5-5-5--|
A|------------------|-------------------6-|---6-6-6-6-6-6--|-6-6-6-6-6-6-6--|
E|--9--9--9-9-9-9-9-|-9--9--9-9-9-9-9-9---|----------------|----------------|
      X  X   X X     X     X   X   X X       X X X X X X      X X X X X X
"What the color of her eyes were..."

e|------------------|----------------------|--------------------|-------------------------|
B|------------------|----------------------|--------------------|-------------------------|
G|------------------|----------------------|--------------------|-------------------------|
D|-10-10-10-6-6-6-8-|-8-10-10-8-8-6-6-6-10-|--10-10-10-10-10-10-|-10-10-10-10-10-10-10-10-|
A|--8--8--8-8-8-8-8-|-8--8--8-8-8-8-8-8-11-|--11-11-11-11-11-11-|-11-11-11-11-11-11-11-11-|
E|------------------|----------------------|--------------------|-------------------------|
      X  X   X X     X     X   X   X         X  X  X  X  X  X    X  X  X  X  X  X  X  X
"As the telling signs of age rain..."

e|------------------|---------------------|----------------|----------------|
B|------------------|---------------------|----------------|----------------|
G|------------------|---------------------|----------------|----------------|
D|-10-10-10-6-6-6-8-|-8-10-10-8-8-6-6-6-6-|---6-6-6-6-6-6--|-5~Let~Ring~----|
A|------------------|-------------------6-|---6-6-6-6-6-6--|-6~Let~Ring~----|
E|--9--9--9-9-9-9-9-|-9--9--9-9-9-9-9-9---|----------------|----------------|
      X  X   X X     X     X   X   X X       X X X X X X
"Through the valley's of an aging face that this world has forgotten..."


[Main Theme #1]

 (Mute/Open Strum)
e|--x---x--x-x-x-x-x-|-x--x--x-x-x-x-x-x---x-|---x--x--x--x--x--x-|--x--x--x--x--x--x--x--x-|
B|--x---x--x-x-x-x-x-|-x--x--x-x-x-x-x-x---x-|---0--0--0--0--0--0-|--0--0--0--0--0--0--0--0-|
G|--x---x--x-x-x-x-x-|-x--x--x-x-x-x-x-x---x-|---x--x--x--x--x--x-|--x--x--x--x--x--x--x--x-|
D|-10--10-10-6-6-6-8-|-8-10-10-8-8-6-6-6--10-|--10-10-10-10-10-10-|-10-10-10-10-10-10-10-10-|
A|--8---8--8-8-8-8-8-|-8--8--8-8-8-8-8-8--11-|--11-11-11-11-11-11-|-11-11-11-11-11-11-11-11-|
E|--0---0--0-0-0-0-0-|-0--0--0-0-0-0-0-0-----|---x--x--x--x--x--x-|--x--x--x--x--x--x--x--x-|

e|--x---x--x-x-x-x-x-|-x--x--x-x-x-x-x-x--x-|---x-x-x-x-x-x--|-x-x-x-x-x-x-x--|
B|--x---x--x-x-x-x-x-|-x--x--x-x-x-x-x-x--x-|---x-x-x-x-x-x--|-x-x-x-x-x-x-x--|
G|--x---x--x-x-x-x-x-|-x--x--x-x-x-x-x-x--0-|---0-0-0-0-0-0--|-0-0-0-0-0-0-0--|
D|-10--10-10-6-6-6-8-|-8-10-10-8-8-6-6-6--6-|---6-6-6-6-6-6--|-5-5-5-5-5-5-5--|
A|--x---x--x-x-x-x-x-|-x--x--x-x-x-x-x-x--6-|---6-6-6-6-6-6--|-6-6-6-6-6-6-6--|
E|--9---9--9-9-9-9-9-|-9--9--9-9-9-9-9-9--x-|---x-x-x-x-x-x--|-x-x-x-x-x-x-x--| x2

                                                                 "There is no-"


[Verse]

 (Bass-Line Strum)
e|----------------|-----------------|----------------|-----------------|
B|----------------|-----------------|----------------|-----------------|
G|----------------|-----------------|----------------|-----------------|
D|-3~Let~Ring~----|-----------------|----------------|-----------------|
A|-3~Let~Ring~----|-----------------|----------------|-----------------|
E|-0--0-0-0-0-0-0-|-0-0-0-0-0-0-0---|-4\-4-4-4-4-4-4-|-4-4-4-4-4-4-4---|

 "-reconciliation that will put..."

e|------------------------|------------------------|----------------|----------------|
B|------------------------|------------------------|----------------|----------------|
G|------------------------|------------------------|----------------|----------------|
D|------------------------|------------------------|----------------|----------------|
A|-11\--11-11-11-11-11-11-|-11-11-11-11-11-11-11---|-6--6-6-6-6-6---|-6--6-6-6-6-6---|
E|--9\---9--9--9--9--9--9-|--9--9--9--9--9--9--9---|-4--4-4-4-4-4---|-3--3-3-3-3-3---|

 "...no time like the present..."

 (Palm Mute)
e|----------------|-----------------|----------------|-----------------|
B|----------------|-----------------|----------------|-----------------|
G|----------------|-----------------|----------------|-----------------|
D|-3--3-3-3-3-3-3-|-3-3-3-3-3-3-3---|-6--6-6-6-6-6-6-|-6-6-6-6-6-6-6---|
A|-3--3-3-3-3-3-3-|-3-3-3-3-3-3-3---|-6--6-6-6-6-6-6-|-6-6-6-6-6-6-6---|
E|-0--0-0-0-0-0-0-|-0-0-0-0-0-0-0---|-4--4-4-4-4-4-4-|-4-4-4-4-4-4-4---|
     X X X X X X   X X X X X X X        X X X X X X   X X X X X X X
 "And seldom do these words ring true..."

e|------------------------|------------------------|----------------|----------------|
B|------------------------|------------------------|----------------|----------------|
G|------------------------|------------------------|----------------|----------------|
D|-11---11-11-11-11-11-11-|-11-11-11-11-11-11-11---|-6--6-6-6-6-6---|-5--5-5-5-5-5---|
A|-11---11-11-11-11-11-11-|-11-11-11-11-11-11-11---|-6--6-6-6-6-6---|-6--6-6-6-6-6---|
E|--9----9--9--9--9--9--9-|--9--9--9--9--9--9--9---|-4--4-4-4-4-4---|-3--3-3-3-3-3---|
        X  X  X  X  X  X    X  X  X  X  X  X  X        X X X X X        X X X X X
 "Walls that we just can't break through..."


[Pre-Chorus]

 (Mute Strum)
e|----x--x-x-x-x-|--x-x---x-x-x-x-|-x--x--x-x-x-x-|--x-x--x-x-x-x-|
B|----x--x-x-x-x-|--x-x---x-x-x-x-|-x--x--x-x-x-x-|--x-x--x-x-x-x-|
G|----6--6-6-6-6-|--6-6---6-6-6-6-|-8--8--8-8-8-8-|--8-8--8-8-8-8-|
D|----x--x-x-x-x-|--x-x---x-x-x-x-|-x--x--x-x-x-x-|--x-x--x-x-x-x-|
A|----4--4-4-4-4-|--4-4---4-4-4-4-|-6--6--6-6-6-6-|--6-6--6-6-6-6-|
E|----x--x-x-x-x-|--x-x---x-x-x-x-|-x--x--x-x-x-x-|--x-x--x-x-x-x-|

 "...now.          If this ain't love..."


e|----x--x-x-x-x-|--x-x---x-x-x-x-|-x-------------|-x-------------|
B|----x--x-x-x-x-|--x-x---x-x-x-x-|-x-------------|-x-------------|
G|----6--6-6-6-6-|--6-6---6-6-6-6-|-8~Let~Ring----|-8-------------|
D|----x--x-x-x-x-|--x-x---x-x-x-x-|-x-------------|-x-------------|
A|----4--4-4-4-4-|--4-4---4-4-4-4-|-6~Let~Ring----|-6-------------|
E|----x--x-x-x-x-|--x-x---x-x-x-x-|-x-------------|-x-------------|

 "...out?     'Cause I don't know. That's when she said I don't-"

[Chorus #1]

(Open Strum)

 Em
-hate you boy
               G
I just want to save you
                              Cadd9        G
while there's still something left to save
               Dsus2/Gb
That's when I told her
  Em
I love you girl
                G
but I'm not the answer for
                   C
the questions that you still have

G      Dsus2/Gb
 Ohhhh    Ohhhhh...

*[Main Theme #1]


*[Verse]


*[Pre-Chorus]

[Chorus #2/Main Theme #1]

 (Mute/Open Strum)
e|--x---x--x-x-x-x-x-|-x--x--x-x-x-x-x-x---x-|---x--x--x--x--x--x-|--x--x--x--x--x--x--x--x-|
B|--x---x--x-x-x-x-x-|-x--x--x-x-x-x-x-x---x-|---0--0--0--0--0--0-|--0--0--0--0--0--0--0--0-|
G|--x---x--x-x-x-x-x-|-x--x--x-x-x-x-x-x---x-|---x--x--x--x--x--x-|--x--x--x--x--x--x--x--x-|
D|-10--10-10-6-6-6-8-|-8-10-10-8-8-6-6-6--10-|--10-10-10-10-10-10-|-10-10-10-10-10-10-10-10-|
A|--8---8--8-8-8-8-8-|-8--8--8-8-8-8-8-8--11-|--11-11-11-11-11-11-|-11-11-11-11-11-11-11-11-|
E|--0---0--0-0-0-0-0-|-0--0--0-0-0-0-0-0-----|---x--x--x--x--x--x-|--x--x--x--x--x--x--x--x-|

 "-hate you boy I just want to..."

e|--x---x--x-x-x-x-x-|-x--x--x-x-x-x-x-x--x-|---x-x-x-x-x-x--|-x-x-x-x-x-x-x--|
B|--x---x--x-x-x-x-x-|-x--x--x-x-x-x-x-x--x-|---x-x-x-x-x-x--|-x-x-x-x-x-x-x--|
G|--x---x--x-x-x-x-x-|-x--x--x-x-x-x-x-x--0-|---0-0-0-0-0-0--|-0-0-0-0-0-0-0--|
D|-10--10-10-6-6-6-8-|-8-10-10-8-8-6-6-6--6-|---6-6-6-6-6-6--|-5-5-5-5-5-5-5--|
A|--x---x--x-x-x-x-x-|-x--x--x-x-x-x-x-x--6-|---6-6-6-6-6-6--|-6-6-6-6-6-6-6--|
E|--9---9--9-9-9-9-9-|-9--9--9-9-9-9-9-9--x-|---x-x-x-x-x-x--|-x-x-x-x-x-x-x--|

"...left to save.                               That's when I told her I-"


[Chorus #2/Main Theme #2]

e|--x---x--x----x--x--x---x-|---x----x----x----x-|-----x---x--x--x--x-|---x--x---x--x--x--x--|
B|--x---x--x----x--x--x---x-|---x----x----x----x-|-----x---x--x--x--x-|---x--x---x--x--x--x--|
G|-17\-17-17---13-13-13--15-|--17---15---13---17-|----17--17-17-17-17-|--17-17--17-17-17-17--|
D|--x---x--x----x--x--x---x-|---x----x----x----x-|-----x---x--x--x--x-|---x--x---x--x--x--x--|
A|-15\-15--15--11-11-11--13-|--15---13---11---15-|----15--15-15-15-15-|--15-15--15-15-15-15--|
E|--0---x--x----0--0--0---0-|---0----0----0---16-|----16--16-16-16-16-|--16-16--16-16-16-16--|

 "-love  you     girl..."

e|--x---x--x----x--x--x---x-|---x----x----x---|--x-------------|---x---------|
B|--x---x--x----x--x--x---x-|---x----x----x---|--x-------------|---x---------|
G|-17--17-17---13-13-13--15-|--17---15---13---|-13~Let~Ring----|--12---------|
D|--x---x--x----x--x--x---x-|---x----x----x---|--x-------------|---x---------|
A|-16--16-16---11-11-11--13-|--15---13---11---|-11~Let~Ring----|--10---------|
E|--0---x--x----0--0--0---0-|---0----0----0---|--9-------------|--11---------|

 "...you      still        have.                   Ohhhhh...         Ohhhh."


[Bridge #1]

 (Mute Strum)
e|----x---x---x--x-|--x---x--x-x----x-|----x---x---x--x-|--x---x--x-x-x--x--|
B|----x---x---x--x-|--x---x--x-x----x-|----x---x---x--x-|--x---x--x-x-x--x--|
G|---10--10--10-13-|-13--12--8-8---10-|---10--10--10-13-|-13--12--8-8-8-10--|
D|----x---x---x--x-|--x---x--x-x----x-|----x---x---x--x-|--x---x--x-x-x--x--|  x4
A|----8---8---8-12-|-12--10--6-6----8-|----8---8---8-12-|-12--10--6-6-6--8--|
E|----x---x---x--x-|--x---x--x-x----x-|----x---x---x--x-|--x---x--x-x-x--x--|


e|----x---x---x--x-|--x---x---x------------|
B|----x---x---x--x-|--x---x---x------------|
G|---10--10--10-13-|-13--12—-11~Let~Ring~--|
D|----x---x---x--x-|--x---x---x------------|
A|----8---8---8-12-|-12--10---9~Let~Ring~--|
E|----x---x---x--x-|--x---x---x------------|


[Bridge #2]

 (Strum)
e|-------------------|----------------------|----------------|-----------------|
B|-------------------|----------------------|----------------|-----------------|
G|-10-10-10-10-10-10-|-10-10-10-10-10-10-10-|-5--5-5-5-5-5-5-|-5-5-5-5-5-5-5---|
D|-10-10-10-10-10-10-|-10-10-10-10-10-10-10-|-6--6-6-6-6-6-6-|-6-6-6-6-6-6-6---|
A|--8--8--8--8--8--8-|--8--8--8--8--8--8--8-|-6--6-6-6-6-6-6-|-6-6-6-6-6-6-6---|
E|-------------------|----------------------|-4--4-4-4-4-4-4-|-4-4-4-4-4-4-4---|

    "One thousand miles away..."


e|-------------------|------------------|----------------|----------------|
B|-------------------|------------------|----------------|----------------|
G|--6--6-6-6-6-6-6---|--6--6-6-6-6-6-6--|-8--8-8-8-8-8---|-8--8-8-8-8-8---|
D|--6--6-6-6-6-6-6---|--6--6-6-6-6-6-6--|-8--8-8-8-8-8---|-8--8-8-8-8-8---|
A|--4--4-4-4-4-4-4---|--4--4-4-4-4-4-4--|-6--6-6-6-6-6---|-6--6-6-6-6-6---|
E|-------------------|------------------|----------------|----------------|

    "But so much left that..."

e|-------------------|----------------------|----------------|-----------------|
B|-------------------|----------------------|----------------|-----------------|
G|-10-10-10-10-10-10-|-10-10-10-10-10-10-10-|-5--5-5-5-5-5-5-|-5-5-5-5-5-5-5---|
D|-10-10-10-10-10-10-|-10-10-10-10-10-10-10-|-6--6-6-6-6-6-6-|-6-6-6-6-6-6-6---|
A|--8--8--8--8--8--8-|--8--8--8--8--8--8--8-|-6--6-6-6-6-6-6-|-6-6-6-6-6-6-6---|
E|-------------------|----------------------|-4--4-4-4-4-4-4-|-4-4-4-4-4-4-4---|

    "We never had a..."


e|-----------------|----------|
B|-----------------|----------|
G|--6~Let~Ring~----|-----8----|
D|--6~Let~Ring~----|-----8----|
A|--4~Let~Ring~----|-----6----|
E|-----------------|----------|

   "It takes me under.   It takes me under once again-"


[Main Theme #2]

 (Mute Strum)
e|--x---x--x----x--x--x---x-|---x----x----x----x-|-----x---x--x--x--x-|---x--x---x--x--x--x--|
B|--x---x--x----x--x--x---x-|---x----x----x----x-|-----x---x--x--x--x-|---x--x---x--x--x--x--|
G|-17\-17-17---13-13-13--15-|--17---15---13---17-|----17--17-17-17-17-|--17-17--17-17-17-17--|
D|--x---x--x----x--x--x---x-|---x----x----x----x-|-----x---x--x--x--x-|---x--x---x--x--x--x--|
A|-15\-15--15--11-11-11--13-|--15---13---11---15-|----15--15-15-15-15-|--15-15--15-15-15-15--|
E|--0---x--x----0--0--0---0-|---0----0----0---16-|----16--16-16-16-16-|--16-16--16-16-16-16--|


e|--x---x--x----x--x--x---x-|---x----x----x---|--x--x--x--x--x--x---|---x---x--x--x--x--x---|
B|--x---x--x----x--x--x---x-|---x----x----x---|--x--x--x--x--x--x---|---x---x--x--x--x--x---|
G|-17--17-17---13-13-13--15-|--17---15---13---|-13-13-13-13-13-13---|--12--12-12-12-12-12---|
D|--x---x--x----x--x--x---x-|---x----x----x---|--x--x--x--x--x--x---|---x---x--x--x--x--x---|
A|-16--16-16---11-11-11--13-|--15---13---11---|-11-11-11-11-11-11---|--10--10--10-10-10-10--|
E|--0---x--x----0--0--0---0-|---0----0----0---|--9--9--9--9--9--9---|--11--11--11-11-11-11--|

                                                                           "I don't-"

[Main Theme #1]

 (Mute/Open Strum)
e|--x---x--x-x-x-x-x-|-x--x--x-x-x-x-x-x---x-|---x--x--x--x--x--x-|--x--x--x--x--x--x--x--x-|
B|--x---x--x-x-x-x-x-|-x--x--x-x-x-x-x-x---x-|---0--0--0--0--0--0-|--0--0--0--0--0--0--0--0-|
G|--x---x--x-x-x-x-x-|-x--x--x-x-x-x-x-x---x-|---x--x--x--x--x--x-|--x--x--x--x--x--x--x--x-|
D|-10--10-10-6-6-6-8-|-8-10-10-8-8-6-6-6--10-|--10-10-10-10-10-10-|-10-10-10-10-10-10-10-10-|
A|--8---8--8-8-8-8-8-|-8--8--8-8-8-8-8-8--11-|--11-11-11-11-11-11-|-11-11-11-11-11-11-11-11-|
E|--0---0--0-0-0-0-0-|-0--0--0-0-0-0-0-0-----|---x--x--x--x--x--x-|--x--x--x--x--x--x--x--x-|

   "-hate you..."                                                            "I don't-"


e|--x---x--x-x-x-x-x-|-x--x--x-x-x-x-x-x--x-|---x-x-x-x-x-x--|-x-x-x-x-x-x-x--|
B|--x---x--x-x-x-x-x-|-x--x--x-x-x-x-x-x--x-|---x-x-x-x-x-x--|-x-x-x-x-x-x-x--|
G|--x---x--x-x-x-x-x-|-x--x--x-x-x-x-x-x--0-|---0-0-0-0-0-0--|-0-0-0-0-0-0-0--|
D|-10--10-10-6-6-6-8-|-8-10-10-8-8-6-6-6--6-|---6-6-6-6-6-6--|-5-5-5-5-5-5-5--|
A|--x---x--x-x-x-x-x-|-x--x--x-x-x-x-x-x--6-|---6-6-6-6-6-6--|-6-6-6-6-6-6-6--|
E|--9---9--9-9-9-9-9-|-9--9--9-9-9-9-9-9--x-|---x-x-x-x-x-x--|-x-x-x-x-x-x-x--|
   "-hate you. No..."                                         "So tell me-"


[Ending Prechorus]

 (Fingerpick)
e|----------------------------------|---------------------------------------|
B|--------1-----------------4-------|-----------1----------4~Let~Ring---4---|
G|------0---0--0----------0---0--0--|---------0---0--0-----0~Let~Ring---0---|
D|----3------3----------5-------5---|-------3------3-------5~Let~Ring---5---|
A|--4-----------------6/------------|-----4----------------6~Let~Ring---6---|
E|----------------------------------|---------------------------------------|
 "-now if this ain't love..."             "...'Cause I don't know. That's when she said 
don't-"


[Chorus #2/Main Theme #1 - Outro]

 (Mute/Open Strum)
e|--x---x--x-x-x-x-x-|-x--x--x-x-x-x-x-x---x-|---x--x--x--x--x--x-|--x--x--x--x--x--x--x--x-|
B|--x---x--x-x-x-x-x-|-x--x--x-x-x-x-x-x---x-|---0--0--0--0--0--0-|--0--0--0--0--0--0--0--0-|
G|--x---x--x-x-x-x-x-|-x--x--x-x-x-x-x-x---x-|---x--x--x--x--x--x-|--x--x--x--x--x--x--x--x-|
D|-10--10-10-6-6-6-8-|-8-10-10-8-8-6-6-6--10-|--10-10-10-10-10-10-|-10-10-10-10-10-10-10-10-|
A|--8---8--8-8-8-8-8-|-8--8--8-8-8-8-8-8--11-|--11-11-11-11-11-11-|-11-11-11-11-11-11-11-11-|
E|--0---0--0-0-0-0-0-|-0--0--0-0-0-0-0-0-----|---x--x--x--x--x--x-|--x--x--x--x--x--x--x--x-|

 "-hate you boy I just want to..."

e|--x---x--x-x-x-x-x-|-x--x--x-x-x-x-x-x--x-|---x-x-x-x-x-x--|-x-x-x-x-x-x-x--|
B|--x---x--x-x-x-x-x-|-x--x--x-x-x-x-x-x--x-|---x-x-x-x-x-x--|-x-x-x-x-x-x-x--|
G|--x---x--x-x-x-x-x-|-x--x--x-x-x-x-x-x--0-|---0-0-0-0-0-0--|-0-0-0-0-0-0-0--|
D|-10--10-10-6-6-6-8-|-8-10-10-8-8-6-6-6--6-|---6-6-6-6-6-6--|-5-5-5-5-5-5-5--|
A|--x---x--x-x-x-x-x-|-x--x--x-x-x-x-x-x--6-|---6-6-6-6-6-6--|-6-6-6-6-6-6-6--|
E|--9---9--9-9-9-9-9-|-9--9--9-9-9-9-9-9--x-|---x-x-x-x-x-x--|-x-x-x-x-x-x-x--|

"...left to save.                                     That's when I told her I-"

e|--x---x--x-x-x-x-x-|-x--x--x-x-x-x-x-x---x-|---x--x--x--x--x--x-|--x--x--x--x--x--x--x--x-|
B|--x---x--x-x-x-x-x-|-x--x--x-x-x-x-x-x---x-|---0--0--0--0--0--0-|--0--0--0--0--0--0--0--0-|
G|--x---x--x-x-x-x-x-|-x--x--x-x-x-x-x-x---x-|---x--x--x--x--x--x-|--x--x--x--x--x--x--x--x-|
D|-10--10-10-6-6-6-8-|-8-10-10-8-8-6-6-6--10-|--10-10-10-10-10-10-|-10-10-10-10-10-10-10-10-|
A|--8---8--8-8-8-8-8-|-8--8--8-8-8-8-8-8--11-|--11-11-11-11-11-11-|-11-11-11-11-11-11-11-11-|
E|--0---0--0-0-0-0-0-|-0--0--0-0-0-0-0-0-----|---x--x--x--x--x--x-|--x--x--x--x--x--x--x--x-|

 "-love you girl but..."

e|--x---x--x-x-x-x-x-|-x--x--x-x-x-x-x-x--x-|---x-x-x-x-x-x--|-x-x-x-x-x-x-x--|
B|--x---x--x-x-x-x-x-|-x--x--x-x-x-x-x-x--x-|---x-x-x-x-x-x--|-x-x-x-x-x-x-x--|
G|--x---x--x-x-x-x-x-|-x--x--x-x-x-x-x-x--0-|---0-0-0-0-0-0--|-0-0-0-0-0-0-0--|
D|-10--10-10-6-6-6-8-|-8-10-10-8-8-6-6-6--6-|---6-6-6-6-6-6--|-5-5-5-5-5-5-5--|
A|--x---x--x-x-x-x-x-|-x--x--x-x-x-x-x-x--6-|---6-6-6-6-6-6--|-6-6-6-6-6-6-6--|
E|--9---9--9-9-9-9-9-|-9--9--9-9-9-9-9-9--x-|---x-x-x-x-x-x--|-x-x-x-x-x-x-x--|

"...you still have.                                            "I don't hate-"

e|--x---x--x-x-x-x-x-|-x--x--x-x-x-x-x-x---x-|---x--x--x--x--x--x-|--x--x--x--x--x--x--x--x-|
B|--x---x--x-x-x-x-x-|-x--x--x-x-x-x-x-x---x-|---0--0--0--0--0--0-|--0--0--0--0--0--0--0--0-|
G|--x---x--x-x-x-x-x-|-x--x--x-x-x-x-x-x---x-|---x--x--x--x--x--x-|--x--x--x--x--x--x--x--x-|
D|-10--10-10-6-6-6-8-|-8-10-10-8-8-6-6-6--10-|--10-10-10-10-10-10-|-10-10-10-10-10-10-10-10-|
A|--8---8--8-8-8-8-8-|-8--8--8-8-8-8-8-8--11-|--11-11-11-11-11-11-|-11-11-11-11-11-11-11-11-|
E|--0---0--0-0-0-0-0-|-0--0--0-0-0-0-0-0-----|---x--x--x--x--x--x-|--x--x--x--x--x--x--x--x-|

 "-you..."                                                                    "I don't-"

e|--x---x--x-x-x-x-x-|-x--x--x-x-x-x-x-x--x-|---x-x-x-x-x-x--|-x-x-x-x-x-x-x--0~Let~Ring~--|
B|--x---x--x-x-x-x-x-|-x--x--x-x-x-x-x-x--x-|---x-x-x-x-x-x--|-x-x-x-x-x-x-x--0~Let~Ring~--|
G|--x---x--x-x-x-x-x-|-x--x--x-x-x-x-x-x--0-|---0-0-0-0-0-0--|-0-0-0-0-0-0-0--0~Let~Ring~--|
D|-10--10-10-6-6-6-8-|-8-10-10-8-8-6-6-6--6-|---6-6-6-6-6-6--|-5-5-5-5-5-5-5--3~Let~Ring~--|
A|--x---x--x-x-x-x-x-|-x--x--x-x-x-x-x-x--6-|---6-6-6-6-6-6--|-6-6-6-6-6-6-6--3~Let~Ring~--|
E|--9---9--9-9-9-9-9-|-9--9--9-9-9-9-9-9--x-|---x-x-x-x-x-x--|-x-x-x-x-x-x-x--0~Let~Ring~--|

"-hate you. No."





************************************

X (upper case) = Palm Mute Strum
x (lower case) = Mute String
0 = Open String
~ = Let Ring
\ = Slide

************************************
Suggest correction new What's this?
You can suggest a correction to this tab. Community and Mods will review your correction and vote to approve or reject it.
comments
print report bad tab
3 comments total.
0 reply
Music_101 89 wrote on April 19 2010, 02:46 pm

Whoa. Good job. This sounds really awesome!

0 reply
shardshooter 115 wrote on December 28 2010, 06:31 pm

That's really cool, but sometimes it's look too hard for me(

0 reply
ajondunnfarmer 157 wrote on September 23 2011, 04:07 pm

Im presuming its not relative to the capo (except the 0's) good cover on youtube btw :)

guest
You may want to rate the tab now too:
select rating
Please do not post tabs as comments. Select "correction" instead!