Oops, an error
Loading. Please wait.

Savior Bass Tab

version 1
version 1

Whole song

Interactive

95,009 views 123 this week
7 commentsread comments
1 2 3 4 5
accurate
x 23
add to favorites
launch autoscroll
font size
0
reset
guitar tuner
Autoscroll
slow
fast
+/-
esc
set tempo
stop
Help us to improve Ultimate-Guitar.com Take our survey!
×
Author
Difficulty
Tuning
novice
D# G# C# F# A# D#
#----------------------------------PLEASE NOTE---------------------------------#
#This file is the author's own work and represents their interpretation of the #
#song. You may only use this file for private study, scholarship, or research. #
#------------------------------------------------------------------------------#

Song:  SAVIOR
Band:  Rise Against
Album: APPEAL TO REASON (2008)


Transcribed by shenanigan
	
Tuning: 1/2 step down (Eb, Ab, Db, Gb)



___________________________________________________________________________________
      |
INTRO |
______|

only guitar plays for 17 measures.



kick in when the high lead guitar kicks in for the main theme

___________________________________________________________________________________
           |
MAIN THEME |
___________|


|---------------|--------------|---------------|---------------|
|---------------|--------------|---------------|---------------|
|---------------|--------------|-0--0--0-0-0-0-|--0-0--0-0-0---|
|-2--2--2-2-2-2-|--2-2--2-2-2--|---------------|---------------|


|---------------|--------------|---------------|-----------------|
|-0--0--0-0-0-0-|--0-0--0-0-0--|---------------|-----------------|
|---------------|--------------|-0--0--0-0-0---|-----------------|
|---------------|--------------|-------------4-|--4-4-4-4-4-4-4--|


|---------------|--------------|---------------|---------------|
|---------------|--------------|---------------|---------------|
|---------------|--------------|-0--0--0-0-0-0-|--0-0--0-0-0---|
|-2--2--2-2-2-2-|--2-2--2-2-2--|---------------|---------------|


|---------------|--------------|---------------|-----------------|
|-0--0--0-0-0-0-|--0-0--0-0-0--|---------------|-----------------|
|---------------|--------------|-0--0--0-0-0---|-----------------|
|---------------|--------------|-------------4-|--4-4-4-4-4-4-4--|



___________________________________________________________________________________
        |
VERSE 1 |
________|


|---------------|---------------|---------------|----------------|
|---------------|---------------|---------------|----------------|
|---------------|---------------|-0--0--0-0-0-0-|--0-0--0-0-0-0--|
|-2--2--2-2-2-2-|--2-2--2-2-2-2-|---------------|----------------|


|---------------|---------------|---------------|-----------------|
|-0--0--0-0-0-0-|--0-0--0-0-0-0-|---------------|-----------------|
|---------------|---------------|-0--0--0-0-0---|-----------------|
|---------------|---------------|-------------4-|--4-4-4-4-4-4-4--|


|---------------|---------------|---------------|----------------|
|---------------|---------------|---------------|----------------|
|---------------|---------------|-0--0--0-0-0-0-|--0-0--0-0-0-0--|
|-2--2--2-2-2-2-|--2-2--2-2-2-2-|---------------|----------------|


|---------------|---------------|---------------|-----------------|
|-0--0--0-0-0-0-|--0-0--0-0-0-0-|---------------|-----------------|
|---------------|---------------|-0--0--0-0-0---|-----------------|
|---------------|---------------|-------------4-|--4-4-4-4-4-4-4--|




___________________________________________________________________________________
           |
PRE-CHORUS |
___________|

# means pause for a quarter note's lenght


|--------------|-------------|---------------|---------------|
|-#-0--0-0-0-0-|--0----------|---------------|-----------0---|
|--------------|----4--2--0--|---------------|---------0-----|
|--------------|-------------|-0--0--0-0-0-0-|--0-0--0-------|


|--------------|-------------|----------|--------|
|-#-0--0-0-0-0-|--0----------|-2--------|--------|
|--------------|----4--2--4--|----------|--------|
|--------------|-------------|----------|-0------|




____________________________________________________________________________________
       |
CHORUS |
_______|


|---------------|--------------|---------------|---------------|
|---------------|--------------|---------------|---------------|
|---------------|--------------|-0--0--0-0-0-0-|--0-0--0-0-0---|
|-2--2--2-2-2-2-|--2-2--2-2-2--|---------------|---------------|


|---------------|--------------|---------------|-----------------|
|-0--0--0-0-0-0-|--0-0--0-0-0--|---------------|-----------------|
|---------------|--------------|-0--0--0-0-0---|-----------------|
|---------------|--------------|-------------4-|--4-4-4-4-4-4-4--|


|---------------|--------------|---------------|---------------|
|---------------|--------------|---------------|---------------|
|---------------|--------------|-0--0--0-0-0-0-|--0-0--0-0-0---|
|-2--2--2-2-2-2-|--2-2--2-2-2--|---------------|---------------|


                                          
|---------------|--------------|-----------|--------|
|-0--0--0-0-0-0-|--0-0--0-0-0--|-----------|--------|
|---------------|--------------|-0---------|--------|
|---------------|--------------|---------4-|--------|



_____________________________________________________________________________________
           |
MAIN THEME |
___________|



|---------------|--------------|---------------|---------------|
|---------------|--------------|---------------|---------------|
|---------------|--------------|-0--0--0-0-0-0-|--0-0--0-0-0---|
|-2--2--2-2-2-2-|--2-2--2-2-2--|---------------|---------------|


|---------------|--------------|---------------|-----------------|
|-0--0--0-0-0-0-|--0-0--0-0-0--|---------------|-----------------|
|---------------|--------------|-0--0--0-0-0---|-----------------|
|---------------|--------------|-------------4-|--4-4-4-4-4-4-4--|



___________________________________________________________________________________
        |
VERSE 2 |
________|


|---------------|---------------|---------------|----------------|
|---------------|---------------|---------------|----------------|
|---------------|---------------|-0--0--0-0-0-0-|--0-0--0-0-0-0--|
|-2--2--2-2-2-2-|--2-2--2-2-2-2-|---------------|----------------|


|---------------|---------------|---------------|-----------------|
|-0--0--0-0-0-0-|--0-0--0-0-0-0-|---------------|-----------------|
|---------------|---------------|-0--0--0-0-0---|-----------------|
|---------------|---------------|-------------4-|--4-4-4-4-4-4-4--|


|---------------|---------------|---------------|----------------|
|---------------|---------------|---------------|----------------|
|---------------|---------------|-0--0--0-0-0-0-|--0-0--0-0-0-0--|
|-2--2--2-2-2-2-|--2-2--2-2-2-2-|---------------|----------------|


|---------------|---------------|---------------|-----------------|
|-0--0--0-0-0-0-|--0-0--0-0-0-0-|---------------|-----------------|
|---------------|---------------|-0--0--0-0-0---|-----------------|
|---------------|---------------|-------------4-|--4-4-4-4-4-4-4--|




___________________________________________________________________________________
           |
PRE-CHORUS |
___________|

# means pause for a quarter note's lenght


|--------------|-------------|---------------|---------------|
|-#-0--0-0-0-0-|--0----------|---------------|-----------0---|
|--------------|----4--2--0--|---------------|---------0-----|
|--------------|-------------|-0--0--0-0-0-0-|--0-0--0-------|


|--------------|-------------|----------|--------|
|-#-0--0-0-0-0-|--0----------|-2--------|--------|
|--------------|----4--2--4--|----------|--------|
|--------------|-------------|----------|-0------|




____________________________________________________________________________________
       |
CHORUS |
_______|


|---------------|--------------|---------------|---------------|
|---------------|--------------|---------------|---------------|
|---------------|--------------|-0--0--0-0-0-0-|--0-0--0-0-0---|
|-2--2--2-2-2-2-|--2-2--2-2-2--|---------------|---------------|


|---------------|--------------|---------------|-----------------|
|-0--0--0-0-0-0-|--0-0--0-0-0--|---------------|-----------------|
|---------------|--------------|-0--0--0-0-0---|-----------------|
|---------------|--------------|-------------4-|--4-4-4-4-4-4-4--|


|---------------|--------------|---------------|---------------|
|---------------|--------------|---------------|---------------|
|---------------|--------------|-0--0--0-0-0-0-|--0-0--0-0-0---|
|-2--2--2-2-2-2-|--2-2--2-2-2--|---------------|---------------|


                                          
|---------------|--------------|-----------|--------|
|-0--0--0-0-0-0-|--0-0--0-0-0--|-----------|--------|
|---------------|--------------|-0---------|--------|
|---------------|--------------|---------4-|--------|



_____________________________________________________________________________________
         |
BRIDGE 1 |
_________|


  let ring......................
|----------|---------|---------|-----------|
|-4--------|---------|---------|-----------|
|----------|---------|---------|-----------|
|----------|---------|---------|--------2--|


|------------|--------------|------------|----------------|
|------------|--------------|------------|----------------|
|------------|-------3-3----|------------|-------3-3-3----|
|---2--2--2--|-2--2-------2-|---2--2--2--|-2--2--------2--|


                                                 let ring.....
|------------|--------------|------------|------------|----------|
|------------|--------------|------------|------------|----------|
|------------|-------3-3----|------------|-3-3-3-3----|----------|
|---2--2--2--|-2--2-------2-|---2--2--2--|------------|--------2-|



_____________________________________________________________________________________
         |
BRIDGE 2 |
_________|


|--------------|----------------|--------------|-----------------|
|--------------|----------------|--------------|--------------0--|
|--------------|----------------|--------------|-----------------|
|--2-2--2-2-2--|-2-2-2--2-2-2-0-|--0-0--0-0-0--|-0-0-0--0-0-0----|


|--------------|----------------|--------------|-----------------|
|--0-0--0-0-0--|-0-0-0--0-0-0-2-|--2-2--2-2-2--|-2-2-2--x-x-x-4--|
|--------------|----------------|--------------|-----------------|
|--------------|----------------|--------------|-----------------|


|--------------|-----------------|--------------|-----------------|
|--4-4--4-4-4--|-4-4-6-6-7-6-4-2-|--2-2--2-2-2--|-2-2-2--4-4-4-0--|
|--------------|-----------------|--------------|-----------------|
|--------------|-----------------|--------------|-----------------|


|--------------|---------------|-----------|-----------|
|--0-0--0-0-0--|-0-0-0--0-0-0--|-0---------|-2---------|
|--------------|---------------|------2----|------4----|
|--------------|---------------|-----------|-----------|



_____________________________________________________________________________________
         |
BRIDGE 3 |
_________|


slower


  let ring...................................................................
|----------|---------|---------|---------|---------|---------|---------|-----|
|-4--------|---------|---------|---------|---------|---------|---------|-----|
|----------|---------|---------|---------|---------|---------|---------|-----|
|----------|---------|---------|---------|---------|---------|---------|-----|


|---------|----------|----------|-----------|
|---------|----------|----------|-----------|
|---------|-------0////5--------|-------0---|
|---------|----------|----------|-----------|


|----------|----------|----------|----------|----------|-------|
|----------|----------|----------|----------|----------|-------|
|----------|-------0////5--------|-------0--|-7--------|-------|
|-0--------|----------|----------|----------|----------|-------|




_______________________________________________________________________________________
       |
CHORUS |
_______|

a tempo

|---------------|--------------|---------------|---------------|
|---------------|--------------|---------------|---------------|
|---------------|--------------|-0--0--0-0-0-0-|--0-0--0-0-0---|
|-2--2--2-2-2-2-|--2-2--2-2-2--|---------------|---------------|


|---------------|--------------|---------------|-----------------|
|-0--0--0-0-0-0-|--0-0--0-0-0--|---------------|-----------------|
|---------------|--------------|-0--0--0-0-0---|-----------------|
|---------------|--------------|-------------4-|--4-4-4-4-4-4-4--|


|---------------|--------------|---------------|---------------|
|---------------|--------------|---------------|---------------|
|---------------|--------------|-0--0--0-0-0-0-|--0-0--0-0-0---|
|-2--2--2-2-2-2-|--2-2--2-2-2--|---------------|---------------|


|---------------|--------------|---------------|-----------------|
|-0--0--0-0-0-0-|--0-0--0-0-0--|---------------|-----------------|
|---------------|--------------|-0--0--4-2-0---|--------2-0------|
|---------------|--------------|-------------4-|--4-4-4-----4-4--|




_____________________________________________________________________________________
                 |
MAIN THEME OUTRO |
_________________|


|---------------|--------------|---------------|---------------|
|---------------|--------------|---------------|---------------|
|---------------|--------------|-0--0--0-0-0-0-|--0-0--0-0-0---|
|-2--2--2-2-2-2-|--2-2--2-2-2--|---------------|---------------|


|---------------|--------------|---------------|-----------------|
|-0--0--0-0-0-0-|--0-0--0-0-0--|---------------|-----------------|
|---------------|--------------|-0--0--0-0-0---|-----------------|
|---------------|--------------|-------------4-|--4-4-4-4-4-4-4--|


|---------------|--------------|---------------|---------------|
|---------------|--------------|---------------|---------------|
|---------------|--------------|-0--0--0-0-0-0-|--0-0--0-0-0---|
|-2--2--2-2-2-2-|--2-2--2-2-2--|---------------|---------------|


|---------------|--------------|-----------|-------|
|-0--0--0-0-0-0-|--0-0--0-0-0--|-----------|-------|
|---------------|--------------|-0---------|-------|
|---------------|--------------|---------4-|-------|


|----------|----------|-----*|
|----------|----------|-----*|
|----------|/9\\\-----|-----*|
|-2--------|----------|-----*|



have fun! :)
please rate / comment!


Suggest correction
comments
print report bad tab
7 comments total. Showing first comments.
+3 reply
housedimir66 10 wrote on January 12 2009, 09:02 am

not bad, but you could make it a bit easier to read if you didn't use the massive titles for every part

0 reply
jordanbeth 51 wrote on March 28 2009, 09:56 am

yeh good tab but i agree with the above =]

+1 reply
Aaronology 10 wrote on September 22 2009, 02:11 am

Can someone please revise this tab, its good but it needs structure!

guest
You may want to rate the tab now too:
select rating
Please do not post tabs as comments. Select "correction" instead!