Oops, an error
Loading. Please wait.

Savior Tab

version 2
version 2

Whole song

Interactive

609,227 views 774 this week
35 commentsread comments
1 2 3 4 5
x 122
add to favorites
launch autoscroll
font size
0
reset
how to read this tab
guitar tuner
Autoscroll
slow
fast
+/-
esc
set tempo
stop
Help us to improve Ultimate-Guitar.com Take our survey!
×
Author
Tuning
D# G# C# F# A# D#
Song:  SAVIOR
Band:  Rise Against
Album: Appeal to Reason (2008)
Transcribed by shenanigan

Tuning: 1/2 step down (Eb, Ab, Db, Gb, Bb, Eb)


[Intro]

(every note that is NOT palm muted as indicated, is played ACCENTED!)

Eb|-----------------|-------------------|---------------------|-------------------------|
Bb|-----------------|-------------------|---------------------|-------------------------|
Gb|-----------------|-------------------|---------------------|-------------------------|
Db|-11------7-----9-|---11---9---7---11-|---11-11-11-11-11-11-|-11-11-11-11-11-11-11-11-|
Ab|--9--9-9-9-9-9-9-|-9--9-9-9-9-9-9-12-|---12-12-12-12-12-12-|-12-12-12-12-12-12-12-12-|
Eb|-----------------|-------------------|---------------------|-------------------------|
        . .   . .     .    .   .   .        .  .  .  .  .  .    .  .  .  .  .  .  .  .


Eb|-----------------------|------------------------|---------------|-----------------|
Bb|-----------------------|------------------------|---------------|-----------------|
Gb|-----------------------|------------------------|---------------|-----------------|
Db|-11---------7--------9-|----11-----9-----7----7-|---7-7-7-7-7---|-6--6-6-6-6-6-6--|
Ab|-----------------------|----------------------7-|---7-7-7-7-7-7-|-7--7-7-7-7-7-7--|
Eb|-10--10-10-10-10-10-10-|-10-10-10-10-10-10-10---|---------------|-----------------|
        .  .     .  .       .     .     .     .        . . . .   .      . . . . . .


Eb|-----------------|-------------------|---------------------|-------------------------|
Bb|-----------------|-------------------|---------------------|-------------------------|
Gb|-----------------|-------------------|---------------------|-------------------------|
Db|-11------7-----9-|---11---9---7---11-|---11-11-11-11-11-11-|-11-11-11-11-11-11-11-11-|
Ab|--9--9-9-9-9-9-9-|-9--9-9-9-9-9-9-12-|---12-12-12-12-12-12-|-12-12-12-12-12-12-12-12-|
Eb|-----------------|-------------------|---------------------|-------------------------|
        . .   . .     .    .   .   .        .  .  .  .  .  .    .  .  .  .  .  .  .  .


Eb|-----------------------|------------------------|---------------|-----------------|
Bb|-----------------------|------------------------|---------------|-----------------|
Gb|-----------------------|------------------------|---------------|-----------------|
Db|-11---------7--------9-|----11-----9----11----7-|---7-7-7-7-7---|-6---------------|
Ab|-----------------------|----------------------7-|---7-7-7-7-7-7-|-7---------------|
Eb|-10--10-10-10-10-10-10-|-10-10-10-10-10-10-10---|---------------|-----------------|
        .  .     .  .       .     .     .     .        . . . .   .   ^Rhy Gtr enters

the rythmn guitar enters at the indicated point with a fading in E5 power chord.


[Main Theme]

lead part 1:

Eb|------------------|--------------------|--------------------|----------------------|
Bb|------------------|--------------------|--------------------|----------------------|
Gb|-18\----14-----16-|--18---16---14---18-|----18--18-18-18-18-|--18-18--18-18-18-18--|
Db|------------------|--------------------|--------------------|----------------------|
Ab|-16\----12-----14-|--16---14---12---16-|----16--16-16-16-16-|--16-16--16-16-16-16--|
Eb|------------------|--------------------|--------------------|----------------------|


Eb|------------------|--------------------|--------------------|----------------------|
Bb|------------------|--------------------|--------------------|----------------------|
Gb|-18\----14-----16-|--18---16---14---14-|----14--14-14-14-13-|--13-13---13-13-13-13-|
Db|------------------|--------------------|--------------------|----------------------|
Ab|-16\----12-----14-|--16---14---12---12-|----12--12-12-12-11-|--11-11---11-11-11-11-|
Eb|------------------|--------------------|--------------------|----------------------|


lead part 1 is then repeated with a second guitar playing lead part 2:

Eb|------------------|--------------------|--------------------|----------------------|
Bb|------------------|--------------------|--------------------|----------------------|
Gb|-11------6-----13-|--14---13---11----9-|-----9---9--9--9--9-|---9--9---9--9--9--9--|
Db|------------------|--------------------|--------------------|----------------------|
Ab|--9------4-----11-|--12---11----9----7-|-----7---7--7--7--7-|---7--7---7--7--7--7--|
Eb|------------------|--------------------|--------------------|----------------------|


Eb|------------------|--------------------|--------------------|-----------------------|
Bb|------------------|--------------------|--------------------|-----------------------|
Gb|-11------7-----13-|--14---13---11---16-|----16--16-16-16-18-|--18-18-18-18-18-18-18-|
Db|------------------|--------------------|--------------------|-----------------------|
Ab|--9------5-----11-|--12---11----9---14-|----14--14-14-14-16-|--16-16-16-16-16-16-16-|
Eb|------------------|--------------------|--------------------|-----------------------|


rythm part

Eb|---------------|----------------|---------------|----------------|
Bb|---------------|----------------|---------------|----------------|
Gb|---------------|----------------|---------------|----------------|
Db|-4--4--4-4-4-4-|--4-4---4-4-4-4-|-7--7--7-7-7-7-|--7-7---7-7-7-7-|
Ab|-4--4--4-4-4-4-|--4-4---4-4-4-4-|-7--7--7-7-7-7-|--7-7---7-7-7-7-|
Eb|-2--2--2-2-2-2-|--2-2---2-2-2-2-|-5--5--5-5-5-5-|--5-5---5-5-5-5-|
                                                                             x2

Eb|---------------|----------------|---------------|----------------|
Bb|---------------|----------------|---------------|----------------|
Gb|-7--7--7-7-7-7-|--7-7---7-7-7-7-|---------------|----------------|
Db|-7--7--7-7-7-7-|--7-7---7-7-7-7-|-7--7--7-7-7-6-|--6-6-6-6-6-6-6-|
Ab|-5--5--5-5-5-5-|--5-5---5-5-5-5-|-7--7--7-7-7-7-|--7-7-7-7-7-7-7-|
Eb|---------------|----------------|-5--5--5-5-5-4-|--4-4-4-4-4-4-4-|


[Verse 1]

rythm part:

   let ring...............................8 measures
Eb|-----------|---------|---------|-----|
Bb|-----------|---------|---------|-----|
Gb|-----------|---------|---------|-----|
Db|--4--------|---------|---------|-----|
Ab|--4--------|---------|---------|-----|
Eb|--2--------|---------|---------|-----|


Eb|----------------|-----------------|----------------|-----------------|
Bb|----------------|-----------------|----------------|-----------------|
Gb|----------------|-----------------|----------------|-----------------|
Db|-4--------------|-----------------|-7--------------|-----------------|
Ab|-4--4-4-4-4-4-4-|-4-4-4-4-4-4-4-x-|-7--7-7-7-7-7-7-|-7-7-7-7-7-7-7-x-|
Eb|-2--2-2-2-2-2-2-|-2-2-2-2-2-2-2-x-|-5--5-5-5-5-5-5-|-5-5-5-5-5-5-5-x-|
        . . . . . .   . . . . . . . .      . . . . . .   . . . . . . . .


Eb|----------------|-----------------|----------------|-----------------|
Bb|----------------|-----------------|----------------|-----------------|
Gb|-7--------------|-----------------|----------------|-----------------|
Db|-7--7-7-7-7-7-7-|-7-7-7-7-7-7-7-x-|-7--------------|-6---------------|
Ab|-5--5-5-5-5-5-5-|-5-5-5-5-5-5-5-x-|-7--7-7-7-7-7-x-|-7--7-7-7-7-7-x--|
Eb|----------------|-----------------|-5--5-5-5-5-5-x-|-4--4-4-4-4-4-x--|
       . . . . . .   . . . . . . . .      . . . . . .      . . . . . .


lead part:
              let ring...............
Eb|----------|-------|
Bb|----------|-------|
Gb|-----9----|/11----|
Db|----------|-------|
Ab|-----7----|//9----|
Eb|----------|-------|


[Pre-Chorus]

lead part:

   let ring throughout

Eb|-----|---------12------|---------12------|-----------|
Bb|--10-|-----10------10--|-----10------10--|-----------|
Gb|-----|-11--------------|-11--------------|-9---------|
Db|-----|-----------------|-----------------|-----------|
Ab|-----|-----------------|-----------------|-----------|
Eb|-----|-----------------|-----------------|-----------|


Eb|-----|---------12------|---------12------|-----------|
Bb|--10-|-----10------10--|-----10------10--|-12--------|
Gb|-----|-11--------------|-11--------------|-----------|
Db|-----|-----------------|-----------------|-----------|
Ab|-----|-----------------|-----------------|-----------|
Eb|-----|-----------------|-----------------|-----------|


rythm part:

Eb|---------------|----------------|---------------|---------------|
Bb|---------------|----------------|---------------|---------------|
Gb|----7--7-7-7-7-|--7-7---7-7-7-7-|-9--9--9-9-9-9-|--9-9--9-9-9-9-|
Db|----7--7-7-7-7-|--7-7---7-7-7-7-|-9--9--9-9-9-9-|--9-9--9-9-9-9-|
Ab|----5--5-5-5-5-|--5-5---5-5-5-5-|-7--7--7-7-7-7-|--7-7--7-7-7-7-|
Eb|---------------|----------------|---------------|---------------|


Eb|---------------|----------------|---------------|---------------|
Bb|---------------|----------------|---------------|---------------|
Gb|----7--7-7-7-7-|--7-7---7-7-7-7-|-9-------------|---------------|
Db|----7--7-7-7-7-|--7-7---7-7-7-7-|-9-------------|-2-------------|
Ab|----5--5-5-5-5-|--5-5---5-5-5-5-|-7-------------|-2-------------|
Eb|---------------|----------------|---------------|-0-------------|


[Chorus]

Eb|---------------|----------------|---------------|----------------|
Bb|---------------|----------------|---------------|----------------|
Gb|---------------|----------------|---------------|----------------|
Db|-4--4--4-4-4-4-|--4-4---4-4-4-4-|-7--7--7-7-7-7-|--7-7---7-7-7-7-|
Ab|-4--4--4-4-4-4-|--4-4---4-4-4-4-|-7--7--7-7-7-7-|--7-7---7-7-7-7-|
Eb|-2--2--2-2-2-2-|--2-2---2-2-2-2-|-5--5--5-5-5-5-|--5-5---5-5-5-5-|


Eb|---------------|----------------|---------------|----------------|
Bb|---------------|----------------|---------------|----------------|
Gb|-7--7--7-7-7-7-|--7-7---7-7-7-7-|---------------|----------------|
Db|-7--7--7-7-7-7-|--7-7---7-7-7-7-|-7--7--7-7-7-6-|--6-6-6-6-6-6-6-|
Ab|-5--5--5-5-5-5-|--5-5---5-5-5-5-|-7--7--7-7-7-7-|--7-7-7-7-7-7-7-|
Eb|---------------|----------------|-5--5--5-5-5-4-|--4-4-4-4-4-4-4-|


Eb|---------------|----------------|---------------|----------------|
Bb|---------------|----------------|---------------|----------------|
Gb|---------------|----------------|---------------|----------------|
Db|-4--4--4-4-4-4-|--4-4---4-4-4-4-|-7--7--7-7-7-7-|--7-7---7-7-7-7-|
Ab|-4--4--4-4-4-4-|--4-4---4-4-4-4-|-7--7--7-7-7-7-|--7-7---7-7-7-7-|
Eb|-2--2--2-2-2-2-|--2-2---2-2-2-2-|-5--5--5-5-5-5-|--5-5---5-5-5-5-|


Eb|---------------|----------------|---------------|----------------|
Bb|---------------|----------------|---------------|----------------|
Gb|-7--7--7-7-7-7-|--7-7---7-7-7-7-|---------------|----------------|
Db|-7--7--7-7-7-7-|--7-7---7-7-7-7-|-7-----------6-|----------------|
Ab|-5--5--5-5-5-5-|--5-5---5-5-5-5-|-7-----------7-|----------------|
Eb|---------------|----------------|-5-----------4-|----------------|


[Main Theme]

lead part 1:

Eb|------------------|--------------------|--------------------|----------------------|
Bb|------------------|--------------------|--------------------|----------------------|
Gb|-18\----14-----16-|--18---16---14---18-|----18--18-18-18-18-|--18-18--18-18-18-18--|
Db|------------------|--------------------|--------------------|----------------------|
Ab|-16\----12-----14-|--16---14---12---16-|----16--16-16-16-16-|--16-16--16-16-16-16--|
Eb|------------------|--------------------|--------------------|----------------------|


Eb|------------------|--------------------|--------------------|----------------------|
Bb|------------------|--------------------|--------------------|----------------------|
Gb|-18\----14-----16-|--18---16---14---14-|----14--14-14-14-13-|--13-13---13-13-13-13-|
Db|------------------|--------------------|--------------------|----------------------|
Ab|-16\----12-----14-|--16---14---12---12-|----12--12-12-12-11-|--11-11---11-11-11-11-|
Eb|------------------|--------------------|--------------------|----------------------|


rythm part:

Eb|---------------|----------------|---------------|----------------|
Bb|---------------|----------------|---------------|----------------|
Gb|---------------|----------------|---------------|----------------|
Db|-4--4--4-4-4-4-|--4-4---4-4-4-4-|-7--7--7-7-7-7-|--7-7---7-7-7-7-|
Ab|-4--4--4-4-4-4-|--4-4---4-4-4-4-|-7--7--7-7-7-7-|--7-7---7-7-7-7-|
Eb|-2--2--2-2-2-2-|--2-2---2-2-2-2-|-5--5--5-5-5-5-|--5-5---5-5-5-5-|


Eb|---------------|----------------|---------------|----------------|
Bb|---------------|----------------|---------------|----------------|
Gb|-7--7--7-7-7-7-|--7-7---7-7-7-7-|---------------|----------------|
Db|-7--7--7-7-7-7-|--7-7---7-7-7-7-|-7--7--7-7-7-6-|--6-6-6-6-6-6-6-|
Ab|-5--5--5-5-5-5-|--5-5---5-5-5-5-|-7--7--7-7-7-7-|--7-7-7-7-7-7-7-|
Eb|---------------|----------------|-5--5--5-5-5-4-|--4-4-4-4-4-4-4-|


[Verse 2]

rythm part:

   let ring...............................8 measures
Eb|-----------|---------|---------|-----|
Bb|-----------|---------|---------|-----|
Gb|-----------|---------|---------|-----|
Db|--4--------|---------|---------|-----|
Ab|--4--------|---------|---------|-----|
Eb|--2--------|---------|---------|-----|


Eb|---------------|-------------|-------------|-------------|
Bb|---------------|-------------|-------------|-------------|
Gb|---------------|-------------|-------------|-----------7-|
Db|--4----------4-|-----------7-|-----------7-|-----------7-|
Ab|--4--4--4--4-4-|---4--4--4-7-|---7--7--7-7-|---7--7--7-5-|
Eb|--2--2--2--2-2-|---2--2--2-5-|---5--5--5-5-|---5--5--5---|
        .  .  .       .  .  .       .  .  .       .  .  .


Eb|-------------|-------------|-------------|-------------|
Bb|-------------|-------------|-------------|-------------|
Gb|-----------7-|-------------|-------------|-------------|
Db|---7--7--7-7-|---7--7--7-7-|-------------|-------------|
Ab|---5--5--5-5-|---5--5--5-7-|---7--7--7-7-|---7--7------|
Eb|-------------|-----------5-|---5--5--5-4-|---4--4------|
      .  .  .       .  .  .       .  .  .       .  .


lead part:
              let ring
Eb|----------|-------|--------------|-----------------|
Bb|----------|-------|--------------|-----------------|
Gb|-----9----|/11----|------/14-----|-13-----9----11--|
Db|----------|-------|--------------|-----------------|
Ab|-----7----|//9----|------/12-----|-11-----7-----9--|
Eb|----------|-------|--------------|-----------------|


Eb|-------------------------|------------------------|
Bb|-------------------------|------------------------|
Gb|-11-11-11-11-11-11-11-11-|-11-11-11-11-11-11------|
Db|-------------------------|------------------------|
Ab|--9--9--9--9--9--9--9--9-|--9--9--9--9--9--9------|
Eb|-------------------------|------------------------|


[Pre-Chorus]

lead part:

   let ring throughout

Eb|-----|---------12------|---------12------|-----------|
Bb|--10-|-----10------10--|-----10------10--|-----------|
Gb|-----|-11--------------|-11--------------|-9---------|
Db|-----|-----------------|-----------------|-----------|
Ab|-----|-----------------|-----------------|-----------|
Eb|-----|-----------------|-----------------|-----------|


Eb|-----|---------12------|---------12------|-----------|
Bb|--10-|-----10------10--|-----10------10--|-12--------|
Gb|-----|-11--------------|-11--------------|-----------|
Db|-----|-----------------|-----------------|-----------|
Ab|-----|-----------------|-----------------|-----------|
Eb|-----|-----------------|-----------------|-----------|


rythm part:

Eb|---------------|----------------|---------------|---------------|
Bb|---------------|----------------|---------------|---------------|
Gb|----7--7-7-7-7-|--7-7---7-7-7-7-|-9--9--9-9-9-9-|--9-9--9-9-9-9-|
Db|----7--7-7-7-7-|--7-7---7-7-7-7-|-9--9--9-9-9-9-|--9-9--9-9-9-9-|
Ab|----5--5-5-5-5-|--5-5---5-5-5-5-|-7--7--7-7-7-7-|--7-7--7-7-7-7-|
Eb|---------------|----------------|---------------|---------------|


Eb|---------------|----------------|---------------|---------------|
Bb|---------------|----------------|---------------|---------------|
Gb|----7--7-7-7-7-|--7-7---7-7-7-7-|-9-------------|---------------|
Db|----7--7-7-7-7-|--7-7---7-7-7-7-|-9-------------|-2-------------|
Ab|----5--5-5-5-5-|--5-5---5-5-5-5-|-7-------------|-2-------------|
Eb|---------------|----------------|---------------|-0-------------|


[Chorus]

Eb|---------------|----------------|---------------|----------------|
Bb|---------------|----------------|---------------|----------------|
Gb|---------------|----------------|---------------|----------------|
Db|-4--4--4-4-4-4-|--4-4---4-4-4-4-|-7--7--7-7-7-7-|--7-7---7-7-7-7-|
Ab|-4--4--4-4-4-4-|--4-4---4-4-4-4-|-7--7--7-7-7-7-|--7-7---7-7-7-7-|
Eb|-2--2--2-2-2-2-|--2-2---2-2-2-2-|-5--5--5-5-5-5-|--5-5---5-5-5-5-|


Eb|---------------|----------------|---------------|----------------|
Bb|---------------|----------------|---------------|----------------|
Gb|-7--7--7-7-7-7-|--7-7---7-7-7-7-|---------------|----------------|
Db|-7--7--7-7-7-7-|--7-7---7-7-7-7-|-7--7--7-7-7-6-|--6-6-6-6-6-6-6-|
Ab|-5--5--5-5-5-5-|--5-5---5-5-5-5-|-7--7--7-7-7-7-|--7-7-7-7-7-7-7-|
Eb|---------------|----------------|-5--5--5-5-5-4-|--4-4-4-4-4-4-4-|


Eb|---------------|----------------|---------------|----------------|
Bb|---------------|----------------|---------------|----------------|
Gb|---------------|----------------|---------------|----------------|
Db|-4--4--4-4-4-4-|--4-4---4-4-4-4-|-7--7--7-7-7-7-|--7-7---7-7-7-7-|
Ab|-4--4--4-4-4-4-|--4-4---4-4-4-4-|-7--7--7-7-7-7-|--7-7---7-7-7-7-|
Eb|-2--2--2-2-2-2-|--2-2---2-2-2-2-|-5--5--5-5-5-5-|--5-5---5-5-5-5-|


Eb|---------------|----------------|---------------|----------------|
Bb|---------------|----------------|---------------|----------------|
Gb|-7--7--7-7-7-7-|--7-7---7-7-7-7-|---------------|----------------|
Db|-7--7--7-7-7-7-|--7-7---7-7-7-7-|-7-----------6-|----------------|
Ab|-5--5--5-5-5-5-|--5-5---5-5-5-5-|-7-----------7-|----------------|
Eb|---------------|----------------|-5-----------4-|----------------|
                                                           ^ bridge 1 starts here!


[Bridge 1]

lead part:

Eb|--------------|-----------------|------------------|-----------------|-------------------|
Bb|--------------|-----------------|------------------|-----------------|-------------------|
Gb|-----9-9-9-11-|---11--11--11-14-|-14--13--9-9-9-11-|---11--11--11-14-|-14--13--9-9-9-11--|
Db|--------------|-----------------|------------------|-----------------|-------------------|
Ab|-----7-7-7-9--|----9---9---9-12-|-12--11--7-7-7--9-|----9---9---9-12-|-12--11--7-7-7--9--|
Eb|--------------|-----------------|------------------|-----------------|-------------------|
                                                                                   ^ rhy gtr enters

Eb|-----------------|------------------|-----------------|-------------------|
Bb|-----------------|------------------|-----------------|-------------------|
Gb|---11--11--11-14-|-14--13--9-9---11-|---11--11--11-14-|-14--13--9-9-9-11--|
Db|-----------------|------------------|-----------------|-------------------|
Ab|----9---9---9-12-|-12--11--7-7----9-|----9---9---9-12-|-12--11--7-7-7--9--|
Eb|-----------------|------------------|-----------------|-------------------|


Eb|-----------------|------------------|-----------------|-------------------|
Bb|-----------------|------------------|-----------------|-------------------|
Gb|---11--11--11-14-|-14--13--9-9---11-|---11--11--11-14-|-14--11-11b--------|
Db|-----------------|------------------|-----------------|-------------------|
Ab|----9---9---9-12-|-12--11--7-7----9-|----9---9---9-12-|-12---9------------|
Eb|-----------------|------------------|-----------------|-------------------|
                                                                   bend and let ring


rythm part:

Eb|-----|----------------|----------------|----------------|----------------|
Bb|-----|----------------|----------------|----------------|----------------|
Gb|-----|----------------|--------5-5-----|----------------|--------5-5-5---|
Db|---4-|----4---4---4---|-4---4--5-5---4-|----4---4---4---|-4---4--5-5-5-4-|
Ab|---4-|----4---4---4---|-4---4--3-3---4-|----4---4---4---|-4---4--3-3-3-4-|
Eb|---2-|----2---2---2---|-2---2--------2-|----2---2---2---|-2---2--------2-|


Eb|-----|----------------|----------------|----------------|--------------|
Bb|-----|----------------|----------------|----------------|--------------|
Gb|-----|----------------|--------5-5-----|----------------|-5--5--5------|
Db|---4-|----4---4---4---|-4---4--5-5---4-|----4---4---4---|-5--5--5------|
Ab|---4-|----4---4---4---|-4---4--3-3---4-|----4---4---4---|-3--3--3------|
Eb|---2-|----2---2---2---|-2---2--------2-|----2---2---2---|--------------|
                                                                   let ring....

[Bridge 2]

lead part:

Eb|-----------------|------------------|-----------------|-------------------|
Bb|-----------------|------------------|-----------------|-------------------|
Gb|---11--11--11-14-|-14--13--9-9---11-|---11--11--11-14-|-14--13--9-9-9-11--|
Db|-----------------|------------------|-----------------|-------------------|  x7
Ab|----9---9---9-12-|-12--11--7-7----9-|----9---9---9-12-|-12--11--7-7-7--9--|
Eb|-----------------|------------------|-----------------|-------------------|


Eb|-----------|-----------|
Bb|-----------|-----------|
Gb|-7----8----|-9----10---|
Db|-----------|-----------|
Ab|-5----6----|-7-----8---|
Eb|-----------|-----------|


rythm part:

Eb|----------------|----------------|----------------|----------------|
Bb|----------------|----------------|----------------|----------------|
Gb|----------------|----------------|----------------|--------------7-|
Db|--4-4---4-4-4-4-|--4-4---4-4-4-2-|--2-2---2-2-2-2-|--2-2---2-2-2-7-|
Ab|--4-4---4-4-4-4-|--4-4---4-4-4-2-|--2-2---2-2-2-2-|--2-2---2-2-2-5-|
Eb|--2-2---2-2-2-2-|--2-2---2-2-2-0-|--0-0---0-0-0-0-|--0-0---0-0-0---|


Eb|----------------|----------------|----------------|----------------|
Bb|----------------|----------------|----------------|----------------|
Gb|--7-7---7-7-7-7-|--7-7---7-7-7-9-|--9-9---9-9-9-9-|--9-9---x-x-x---|
Db|--7-7---7-7-7-7-|--7-7---7-7-7-9-|--9-9---9-9-9-9-|--9-9---x-x-x-4-|
Ab|--5-5---5-5-5-5-|--5-5---5-5-5-7-|--7-7---7-7-7-7-|--7-7---x-x-x-4-|
Eb|----------------|----------------|----------------|--------------2-|


Eb|----------------|----------------|----------------|----------------|
Bb|----------------|----------------|----------------|----------------|
Gb|----------------|----------------|----------------|--------------7-|
Db|--4-4---4-4-4-4-|--4-4---4-4-4-2-|--2-2---2-2-2-2-|--2-2---2-2-2-7-|
Ab|--4-4---4-4-4-4-|--4-4---4-4-4-2-|--2-2---2-2-2-2-|--2-2---2-2-2-5-|
Eb|--2-2---2-2-2-2-|--2-2---2-2-2-0-|--0-0---0-0-0-0-|--0-0---0-0-0---|


Eb|----------------|----------------|----------------|----------------|
Bb|----------------|----------------|----------------|----------------|
Gb|--7-7---7-7-7-7-|--7-7---7-7-7-x-|-7--------------|-9--------------|
Db|--7-7---7-7-7-7-|--7-7---7-7-7-x-|-7-------9------|-9------11------|
Ab|--5-5---5-5-5-5-|--5-5---5-5-5-x-|-5-------9------|-7------11------|
Eb|----------------|----------------|---------7------|---------9------|


[Bridge]

rythm guitar:

  let ring.............then pause.
Eb|------------------|
Bb|------------------|
Gb|-11---------------|
Db|-11---------------|
Ab|--9---------------|
Eb|------------------|


clean guitar:

Eb|-----------------|-----------------|-----------------|------------------|
Bb|-----0-------0---|-----0-------0---|-----0-------0---|-----0-------0----|
Gb|---6---6---6---6-|---6---6---6---6-|---6---6---6---6-|---6---6---6---6--|
Db|-4-------4-------|-4-------4-------|-7-------7-------|-7-------7--------|
Ab|-----------------|-----------------|-----------------|------------------|
Eb|-----------------|-----------------|-----------------|------------------|


Eb|-----------------|-----------------|-----------------|------------------|
Bb|-----0-------0---|-----0-------0---|-----0-------0---|-----0-------0----|
Gb|---6---6---6---6-|---6---6---6---6-|---6---6---6---6-|---6---6---6---6--|
Db|-0-------0-------|-0-------0-------|-7-------7-------|-6-------6--------|
Ab|-----------------|-----------------|-----------------|------------------|
Eb|-----------------|-----------------|-----------------|------------------|


Eb|-----------------|-----------------|-----------------|------------------|
Bb|-----0-------0---|-----0-------0---|-----0-------0---|-----0-------0----|
Gb|---6---6---6---6-|---6---6---6---6-|---6---6---6---6-|---6---6---6---6--|
Db|-4-------4-------|-4-------4-------|-7-------7-------|-7-------7--------|
Ab|-----------------|-----------------|-----------------|------------------|
Eb|-----------------|-----------------|-----------------|------------------|


Eb|-----------------|-----------------|-----------------|------------------|
Bb|-----0-------0---|-----0-------0---|-----0-------0---|-----0-------0----|
Gb|---6---6---6---6-|---6---6---6---6-|---6---6---6---6-|---6---6---6---6--|
Db|-0-------0-------|-0-------0-------|-7-------7-------|-6-------6--------|
Ab|-----------------|-----------------|-----------------|------------------|
Eb|-----------------|-----------------|-----------------|------------------|
                                                                      ^ lead part starts

Eb|---------------------|--------------------|
Bb|-------0---------0---|-------0--------0---|
Gb|----6----6----6----6-|----6----6---6----6-|
Db|--4---------4--------|--4--------4--------|    x3
Ab|---------------------|--------------------|
Eb|---------------------|--------------------|


lead part:

Eb|--------|-----------12--------|--------------------|
Bb|----10--|------10--------10---|------10-------10---|
Gb|--------|-11------------------|-11--------9--------|
Db|--------|---------------------|--------------------|
Ab|--------|---------------------|--------------------|
Eb|--------|---------------------|--------------------|


Eb|-----------12--------|---------------------|
Bb|------10--------10---|------10-------10----|
Gb|-11------------------|-11--------9---------|
Db|---------------------|---------------------|
Ab|---------------------|---------------------|
Eb|---------------------|---------------------|


Eb|-----------12--------|--------------------|------------|-------|
Bb|------10--------10---|------10-------10---|-12---------|-------|
Gb|-11------------------|-11--------9--------|------------|-------|
Db|---------------------|--------------------|------------|-------|
Ab|---------------------|--------------------|------------|-------|
Eb|---------------------|--------------------|------------|-------|


[Chorus]

Eb|---------------|----------------|---------------|----------------|
Bb|---------------|----------------|---------------|----------------|
Gb|---------------|----------------|---------------|----------------|
Db|-4--4--4-4-4-4-|--4-4---4-4-4-4-|-7--7--7-7-7-7-|--7-7---7-7-7-7-|
Ab|-4--4--4-4-4-4-|--4-4---4-4-4-4-|-7--7--7-7-7-7-|--7-7---7-7-7-7-|
Eb|-2--2--2-2-2-2-|--2-2---2-2-2-2-|-5--5--5-5-5-5-|--5-5---5-5-5-5-|


Eb|---------------|----------------|---------------|----------------|
Bb|---------------|----------------|---------------|----------------|
Gb|-7--7--7-7-7-7-|--7-7---7-7-7-7-|---------------|----------------|
Db|-7--7--7-7-7-7-|--7-7---7-7-7-7-|-7--7--7-7-7-6-|--6-6-6-6-6-6-6-|
Ab|-5--5--5-5-5-5-|--5-5---5-5-5-5-|-7--7--7-7-7-7-|--7-7-7-7-7-7-7-|
Eb|---------------|----------------|-5--5--5-5-5-4-|--4-4-4-4-4-4-4-|


Eb|---------------|----------------|---------------|----------------|
Bb|---------------|----------------|---------------|----------------|
Gb|---------------|----------------|---------------|----------------|
Db|-4--4--4-4-4-4-|--4-4---4-4-4-4-|-7--7--7-7-7-7-|--7-7---7-7-7-7-|
Ab|-4--4--4-4-4-4-|--4-4---4-4-4-4-|-7--7--7-7-7-7-|--7-7---7-7-7-7-|
Eb|-2--2--2-2-2-2-|--2-2---2-2-2-2-|-5--5--5-5-5-5-|--5-5---5-5-5-5-|


Eb|---------------|----------------|---------------|----------------|
Bb|---------------|----------------|---------------|----------------|
Gb|-7--7--7-7-7-7-|--7-7---7-7-7-7-|---------------|----------------|
Db|-7--7--7-7-7-7-|--7-7---7-7-7-7-|-7--7--7-7-7-6-|--6-6-6-6-6-6-6-|
Ab|-5--5--5-5-5-5-|--5-5---5-5-5-5-|-7--7--7-7-7-7-|--7-7-7-7-7-7-7-|
Eb|---------------|----------------|-5--5--5-5-5-4-|--4-4-4-4-4-4-4-|


[Outro]

lead part 1:

Eb|------------------|--------------------|--------------------|----------------------|
Bb|------------------|--------------------|--------------------|----------------------|
Gb|-18\----14-----16-|--18---16---14---18-|----18--18-18-18-18-|--18-18--18-18-18-18--|
Db|------------------|--------------------|--------------------|----------------------|
Ab|-16\----12-----14-|--16---14---12---16-|----16--16-16-16-16-|--16-16--16-16-16-16--|
Eb|------------------|--------------------|--------------------|----------------------|


Eb|------------------|--------------------|--------------------|----------------------|
Bb|------------------|--------------------|--------------------|----------------------|
Gb|-18\----14-----16-|--18---16---14---14-|----14--14-14-14-13-|--13-13---13-13-13-13-|
Db|------------------|--------------------|--------------------|----------------------|
Ab|-16\----12-----14-|--16---14---12---12-|----12--12-12-12-11-|--11-11---11-11-11-11-|
Eb|------------------|--------------------|--------------------|----------------------|


Eb|------------------|--------------------|--------------------|----------------------|
Bb|------------------|--------------------|--------------------|----------------------|
Gb|-18\----14-----16-|--18---16---14---18-|----18--18-18-18-18-|--18-18--18-18-18-18--|
Db|------------------|--------------------|--------------------|----------------------|
Ab|-16\----12-----14-|--16---14---12---16-|----16--16-16-16-16-|--16-16--16-16-16-16--|
Eb|------------------|--------------------|--------------------|----------------------|


Eb|------------------|--------------------|--------------------|----------------------|
Bb|------------------|--------------------|--------------------|----------------------|
Gb|-18\----14-----16-|--18---16---14---14-|--------------------|----------------------|
Db|------------------|--------------------|--------------------|----------------------|
Ab|-16\----12-----14-|--16---14---12---12-|--------------------|----------------------|
Eb|------------------|--------------------|--------------------|----------------------|


lead part 2:

pause 8 measures, then:

Eb|------------------|--------------------|--------------------|----------------------|
Bb|------------------|--------------------|--------------------|----------------------|
Gb|-11------6-----13-|--14---13---11----9-|-----9---9--9--9--9-|---9--9---9--9--9--9--|
Db|------------------|--------------------|--------------------|----------------------|
Ab|--9------4-----11-|--12---11----9----7-|-----7---7--7--7--7-|---7--7---7--7--7--7--|
Eb|------------------|--------------------|--------------------|----------------------|


Eb|------------------|--------------------|--------------------|-----------------------|
Bb|------------------|--------------------|--------------------|-----------------------|
Gb|-11------7-----13-|--14---13---11---16-|--------------------|-----------------------|
Db|------------------|--------------------|--------------------|-----------------------|
Ab|--9------5-----11-|--12---11----9---14-|--------------------|-----------------------|
Eb|------------------|--------------------|--------------------|-----------------------|


rythm part:

Eb|---------------|----------------|---------------|----------------|
Bb|---------------|----------------|---------------|----------------|
Gb|---------------|----------------|---------------|----------------|
Db|-4--4--4-4-4-4-|--4-4---4-4-4-4-|-7--7--7-7-7-7-|--7-7---7-7-7-7-|
Ab|-4--4--4-4-4-4-|--4-4---4-4-4-4-|-7--7--7-7-7-7-|--7-7---7-7-7-7-|
Eb|-2--2--2-2-2-2-|--2-2---2-2-2-2-|-5--5--5-5-5-5-|--5-5---5-5-5-5-|


Eb|---------------|----------------|---------------|----------------|
Bb|---------------|----------------|---------------|----------------|
Gb|-7--7--7-7-7-7-|--7-7---7-7-7-7-|---------------|----------------|
Db|-7--7--7-7-7-7-|--7-7---7-7-7-7-|-7--7--7-7-7-6-|--6-6-6-6-6-6-6-|
Ab|-5--5--5-5-5-5-|--5-5---5-5-5-5-|-7--7--7-7-7-7-|--7-7-7-7-7-7-7-|
Eb|---------------|----------------|-5--5--5-5-5-4-|--4-4-4-4-4-4-4-|


Eb|---------------|----------------|---------------|----------------|
Bb|---------------|----------------|---------------|----------------|
Gb|---------------|----------------|---------------|----------------|
Db|-4--4--4-4-4-4-|--4-4---4-4-4-4-|-7--7--7-7-7-7-|--7-7---7-7-7-7-|
Ab|-4--4--4-4-4-4-|--4-4---4-4-4-4-|-7--7--7-7-7-7-|--7-7---7-7-7-7-|
Eb|-2--2--2-2-2-2-|--2-2---2-2-2-2-|-5--5--5-5-5-5-|--5-5---5-5-5-5-|


Eb|---------------|----------------|---------------|----------------|
Bb|---------------|----------------|---------------|----------------|
Gb|-7--7--7-7-7-7-|--7-7---7-7-7-7-|---------------|----------------|
Db|-7--7--7-7-7-7-|--7-7---7-7-7-7-|-7-----------6-|----------------|
Ab|-5--5--5-5-5-5-|--5-5---5-5-5-5-|-7-----------7-|----------------|
Eb|---------------|----------------|-5-----------4-|----------------|


Eb|----------|----------|
Bb|----------|----------|
Gb|----------|----------|
Db|-4--------|-4\-------|
Ab|-4--------|-4\-------|
Eb|-2--------|-2\-------|


************************************

| x  Dead note
| b  Bend
| /  Slide up
| \  Slide down
| .  Palm mute

************************************
Suggest correction
comments
print report bad tab
35 comments total. Showing first comments.
+13 reply
elgranmapache 1,021 Oct 27, 2008 06:11 AM

Dude, you could give me some credit since it's obvious that you took my guitar pro file and turned all the guitars into Eb tuning (even there's at the begining the mistake of a note that should be palm muted, not accented).
I mean, it's ok you uploaded this because some people who tune in Eb will definately thank it, but it's obvious you just tuned to Eb the guitar from my tab and export it into a ASCII tab. At least, mention the original tabber...

+15 reply
shenanigan 1,371 Oct 27, 2008 09:00 AM

hey man I don't even HAVE guitar pro editor. So I did not download your guitar pro file.
It's all my work, and believe me, tabs were stolen from me too, and I hate that, so I would never do this to other tabbers.
If your AND my tabs are quite the same and correct, it means that we both got it right.

+12 reply
elgranmapache 1,021 Oct 27, 2008 05:04 PM

ok, I trust you. It's just I was amazed your tab was JUST like mine, but tuned in Eb (mine was dropped D), with even the same little mistakes, which made me suspect. Anyways, I admit it's possible two possible tabbing almost the same thing, so sorry about that then. Good job. But hey, I tabbed it first ; )

guest
You may want to rate the tab now too:
select rating
Wanna post a correction for this tab? Suggest correction