Oops, an error
Loading. Please wait.

Savior Tab

version 4
version 4

Whole song

Interactive

27,050 views 135 this week
no commentswrite comment
1 2 3 4 5
excellent!
x 9
add to favorites
launch autoscroll
font size
0
reset
how to read this tab
guitar tuner
Autoscroll
slow
fast
+/-
esc
set tempo
stop
Help us to improve Ultimate-Guitar.com Take our survey!
×
Author
Tuning
D# G# C# F# A# D#
Song:  SAVIOR
Band:  Rise Against
Album: Appeal to Reason (2008)

Transcribed by Rafux
Tuning: Standard

the song is played half tone down but  this are the tabs to play the song without use 
diferent tuning

[Intro]

D#|-----------------|-------------------|---------------------|-------------------------|
A#|-----------------|-------------------|---------------------|-------------------------|
F#|-----------------|-------------------|---------------------|-------------------------|
C#|-10------6-----8-|---10---8---6---10-|---10-11-10-11-10-11-|-10-11-10-11-10-11-10-11-|
G#|--8--8-8-8-8-8-8-|-8--8-8-8-8-8-8-11-|---11-11-11-11-11-11-|-11-11-11-11-11-11-11-11-|
D#|-----------------|-------------------|---------------------|-------------------------|
      . .   . .     .    .   .   .        .  .  .  .  .  .    .  .  .  .  .  .  .  .


D#|-----------------------|------------------------|---------------|-----------------|
A#|-----------------------|------------------------|---------------|-----------------|
F#|-----------------------|------------------------|---------------|-----------------|
C#|-10---------6--------8-|----10-----8-----6----6-|---6-6-6-6-6---|-5--5-5-5-5-5-5--|
G#|-----------------------|----------------------6-|---6-6-6-6-6-6-|-6--6-6-6-6-6-6--|
D#|--9---9--9--9--9--9--9-|--9--9--9--9--9--9--9---|---------------|-----------------|
      .  .     .  .       .     .     .     .        . . . .   .      . . . . . .


D#|-----------------|-------------------|---------------------|-------------------------|
A#|-----------------|-------------------|---------------------|-------------------------|
F#|-----------------|-------------------|---------------------|-------------------------|
C#|-10------6-----8-|---10---8---6---10-|---10-11-10-11-10-11-|-10-11-10-11-10-11-10-11-|
G#|--8--8-8-8-8-8-8-|-8--8-8-8-8-8-8-11-|---11-11-11-11-11-11-|-11-11-11-11-11-11-11-11-|
D#|-----------------|-------------------|---------------------|-------------------------|
      . .   . .     .    .   .   .        .  .  .  .  .  .    .  .  .  .  .  .  .  .


D#|-----------------------|------------------------|---------------|-----------------|
A#|-----------------------|------------------------|---------------|-----------------|
F#|-----------------------|------------------------|---------------|-----------------|
C#|-10---------6--------8-|----10-----8----10----6-|---6-6-6-6-6---|-5---------------|
G#|-----------------------|----------------------6-|---6-6-6-6-6-6-|-6---------------|
D#|--9---9--9--9--9--9--9-|--9--9--9--9--9--9--9---|---------------|-----------------|
      .  .     .  .       .     .     .     .        . . . .   .   ^Rhy Gtr enters



the rythmn guitar enters at the indicated point with a fading in E5 power chord.

[Main theme]

lead part 1:

D#|------------------|--------------------|--------------------|----------------------|
A#|------------------|--------------------|--------------------|----------------------|
F#|-17\----13-----15-|--17---15---13---17-|----17--17-17-17-17-|--17-17--17-17-17-17--|
C#|------------------|--------------------|--------------------|----------------------|
G#|-15\----11-----13-|--15---13---11---15-|----15--15-15-15-15-|--15-15--15-15-15-15--|
D#|------------------|--------------------|--------------------|----------------------|


D#|------------------|--------------------|--------------------|----------------------|
A#|------------------|--------------------|--------------------|----------------------|
F#|-17\----13-----15-|--17---15---13---13-|----13--13-13-13-12-|--12-12---12-12-12-12-|
C#|------------------|--------------------|--------------------|----------------------|
G#|-15\----11-----13-|--15---13---11---11-|----11--11-11-11-10-|--10-11---10-11-10-11-|
D#|------------------|--------------------|--------------------|----------------------|
 
lead part 1 is then repeated with a second guitar playing lead part 2:

D#|------------------|--------------------|--------------------|----------------------|
A#|------------------|--------------------|--------------------|----------------------|
F#|-10------5-----12-|--13---12---10----8-|-----8---8--8--8--8-|---8--8---8--8--8--8--|
C#|------------------|--------------------|--------------------|----------------------|
G#|--8------3-----10-|--11---10----8----6-|-----6---6--6--6--6-|---6--6---6--6--6--6--|
D#|------------------|--------------------|--------------------|----------------------|


D#|------------------|--------------------|--------------------|-----------------------|
A#|------------------|--------------------|--------------------|-----------------------|
F#|-10------6-----12-|--13---12---10---15-|----15--15-15-15-17-|--17-17-17-17-17-17-17-|
C#|------------------|--------------------|--------------------|-----------------------|
G#|--8------4-----10-|--11---10----8---13-|----13--13-13-13-15-|--15-15-15-15-15-15-15-|
D#|------------------|--------------------|--------------------|-----------------------|
 
rythm part: (repeated 2x)

D#|---------------|----------------|---------------|----------------|
A#|---------------|----------------|---------------|----------------|
F#|---------------|----------------|---------------|----------------|
C#|-3--3--3-3-3-3-|--3-3---3-3-3-3-|-6--6--6-6-6-6-|--6-6---6-6-6-6-|
G#|-3--3--3-3-3-3-|--3-3---3-3-3-3-|-6--6--6-6-6-6-|--6-6---6-6-6-6-|
D#|-1--1--1-1-1-1-|--1-1---1-1-1-1-|-4--4--4-4-4-4-|--4-4---4-4-4-4-|


D#|---------------|----------------|---------------|----------------|
A#|---------------|----------------|---------------|----------------|
F#|-6--6--6-6-6-6-|--6-6---6-6-6-6-|---------------|----------------|
C#|-6--6--6-6-6-6-|--6-6---6-6-6-6-|-6--6--6-6-6-5-|--5-5-5-5-5-5-5-|
G#|-4--4--4-4-4-4-|--4-4---4-4-4-4-|-6--6--6-6-6-5-|--5-5-5-5-5-5-5-|
D#|---------------|----------------|-4--4--4-4-4-3-|--3-3-3-3-3-3-3-|

[Verse 1] 
rythm part:

     let ring...............................8 measures
D#|-----------|---------|---------|-----|
A#|-----------|---------|---------|-----|
F#|-----------|---------|---------|-----|
C#|--3--------|---------|---------|-----|
G#|--3--------|---------|---------|-----|
D#|--1--------|---------|---------|-----|


D#|----------------|-----------------|----------------|-----------------|
A#|----------------|-----------------|----------------|-----------------|
F#|----------------|-----------------|----------------|-----------------|
C#|-3--------------|-----------------|-6--------------|-----------------|
G#|-3--3-3-3-3-3-3-|-3-3-3-3-3-3-3-x-|-6--6-6-6-6-6-6-|-6-6-6-6-6-6-6-x-|
D#|-1--1-1-1-1-1-1-|-1-1-1-1-1-1-1-x-|-4--4-4-4-4-4-4-|-4-4-4-4-4-4-4-x-|
      . . . . . .   . . . . . . . .      . . . . . .   . . . . . . . .


D#|----------------|-----------------|----------------|-----------------|
A#|----------------|-----------------|----------------|-----------------|
F#|-6--------------|-----------------|----------------|-----------------|
C#|-6--6-6-6-6-6-6-|-6-6-6-6-6-6-6-x-|-6--------------|-5---------------|
G#|-4--4-4-4-4-4-4-|-4-4-4-4-4-4-4-x-|-6--6-6-6-6-6-x-|-5--5-5-5-5-5-x--|
D#|----------------|-----------------|-4--4-4-4-4-4-x-|-3--3-3-3-3-3-x--|
     . . . . . .   . . . . . . . .      . . . . . .      . . . . . .

 
  lead part:
                let ring...............
D#|----------|-------|
A#|----------|-------|
F#|-----8----//11----|
C#|----------|-------|
G#|-----6----///9----|
D#|----------|-------|

[Pre-Chorus]
lead part:

   let ring throughout

D#|-----|---------11------|---------11------|-----------|
A#|---9-|------9-------9--|------9-------9--|-----------|
F#|-----|-10--------------|-10--------------|-8---------|
C#|-----|-----------------|-----------------|-----------|
G#|-----|-----------------|-----------------|-----------|
D#|-----|-----------------|-----------------|-----------|


D#|-----|---------11------|---------11------|-----------|
A#|---9-|------9-------9--|------9-------9--|-11--------|
F#|-----|-10--------------|-10--------------|-----------|
C#|-----|-----------------|-----------------|-----------|
G#|-----|-----------------|-----------------|-----------|
D#|-----|-----------------|-----------------|-----------|
 
rythm part:

D#|---------------|----------------|---------------|---------------|
A#|---------------|----------------|---------------|---------------|
F#|----6--6-6-6-6-|--6-6---6-6-6-6-|-8--8--8-8-8-8-|--8-8--8-8-8-8-|
C#|----6--6-6-6-6-|--6-6---6-6-6-6-|-8--8--8-8-8-8-|--8-8--8-8-8-8-|
G#|----4--4-4-4-4-|--4-4---4-4-4-4-|-6--6--6-6-6-6-|--6-6--6-6-6-6-|
D#|---------------|----------------|---------------|---------------|


D#|---------------|----------------|---------------|---------------|
A#|---------------|----------------|---------------|---------------|
F#|----6--6-6-6-6-|--6-6---6-6-6-6-|-8-------------|---------------|
C#|----6--6-6-6-6-|--6-6---6-6-6-6-|-8-------------|-1-------------|
G#|----4--4-4-4-4-|--4-4---4-4-4-4-|-6-------------|-1-------------|
D#|---------------|----------------|---------------|-0-------------|

[Chorus]
D#|---------------|----------------|---------------|----------------|
A#|---------------|----------------|---------------|----------------|
F#|---------------|----------------|---------------|----------------|
C#|-3--3--3-3-3-3-|--3-3---3-3-3-3-|-6--6--6-6-6-6-|--6-6---6-6-6-6-|
G#|-3--3--3-3-3-3-|--3-3---3-3-3-3-|-6--6--6-6-6-6-|--6-6---6-6-6-6-|
D#|-1--1--1-1-1-1-|--1-1---1-1-1-1-|-4--4--4-4-4-4-|--4-4---4-4-4-4-|


D#|---------------|----------------|---------------|----------------|
A#|---------------|----------------|---------------|----------------|
F#|-6--6--6-6-6-6-|--6-6---6-6-6-6-|---------------|----------------|
C#|-6--6--6-6-6-6-|--6-6---6-6-6-6-|-6--6--6-6-6-5-|--5-5-5-5-5-5-5-|
G#|-4--4--4-4-4-4-|--4-4---4-4-4-4-|-6--6--6-6-6-6-|--5-5-5-5-5-5-5-|
D#|---------------|----------------|-4--4--4-4-4-3-|--3-3-3-3-3-3-3-|


D#|---------------|----------------|---------------|----------------|
A#|---------------|----------------|---------------|----------------|
F#|---------------|----------------|---------------|----------------|
C#|-3--3--3-3-3-3-|--3-3---3-3-3-3-|-6--6--6-6-6-6-|--6-6---6-6-6-6-|
G#|-3--3--3-3-3-3-|--3-3---3-3-3-3-|-6--6--6-6-6-6-|--6-6---6-6-6-6-|
D#|-1--1--1-1-1-1-|--1-1---1-1-1-1-|-4--4--4-4-4-4-|--4-4---4-4-4-4-|


D#|---------------|----------------|---------------|----------------|
A#|---------------|----------------|---------------|----------------|
F#|-6--6--6-6-6-6-|--6-6---6-6-6-6-|---------------|----------------|
C#|-6--6--6-6-6-6-|--6-6---6-6-6-6-|-6-----------5-|----------------|
G#|-4--4--4-4-4-4-|--4-4---4-4-4-4-|-6-----------5-|----------------|
D#|---------------|----------------|-4-----------3-|----------------|

[Main theme]
lead part 1:

D#|------------------|--------------------|--------------------|----------------------|
A#|------------------|--------------------|--------------------|----------------------|
F#|-17\----13-----15-|--17---15---13---17-|----17--17-17-17-17-|--17-17--17-17-17-17--|
C#|------------------|--------------------|--------------------|----------------------|
G#|-15\----11-----13-|--15---13---11---15-|----15--15-15-15-15-|--15-15--15-15-15-15--|
D#|------------------|--------------------|--------------------|----------------------|


D#|------------------|--------------------|--------------------|----------------------|
A#|------------------|--------------------|--------------------|----------------------|
F#|-17\----13-----15-|--17---15---13---13-|----13--13-13-13-12-|--12-12---12-12-12-12-|
C#|------------------|--------------------|--------------------|----------------------|
G#|-15\----11-----13-|--15---13---11---11-|----11--11-11-11-10-|--10-11---10-11-10-11-|
D#|------------------|--------------------|--------------------|----------------------|
 
rythm part:

D#|---------------|----------------|---------------|----------------|
A#|---------------|----------------|---------------|----------------|
F#|---------------|----------------|---------------|----------------|
C#|-3--3--3-3-3-3-|--3-3---3-3-3-3-|-6--6--6-6-6-6-|--6-6---6-6-6-6-|
G#|-3--3--3-3-3-3-|--3-3---3-3-3-3-|-6--6--6-6-6-6-|--6-6---6-6-6-6-|
D#|-1--1--1-1-1-1-|--1-1---1-1-1-1-|-4--4--4-4-4-4-|--4-4---4-4-4-4-|


D#|---------------|----------------|---------------|----------------|
A#|---------------|----------------|---------------|----------------|
F#|-6--6--6-6-6-6-|--6-6---6-6-6-6-|---------------|----------------|
C#|-6--6--6-6-6-6-|--6-6---6-6-6-6-|-6--6--6-6-6-5-|--5-5-5-5-5-5-5-|
G#|-4--4--4-4-4-4-|--4-4---4-4-4-4-|-6--6--6-6-6-6-|--6-6-6-6-6-6-6-|
D#|---------------|----------------|-4--4--4-4-4-3-|--3-3-3-3-3-3-3-|

[Verse 2]
rythm part:

     let ring...............................8 measures
D#|-----------|---------|---------|-----|
A#|-----------|---------|---------|-----|
F#|-----------|---------|---------|-----|
C#|--3--------|---------|---------|-----|
G#|--3--------|---------|---------|-----|
D#|--1--------|---------|---------|-----|


D#|---------------|-------------|-------------|-------------|
A#|---------------|-------------|-------------|-------------|
F#|---------------|-------------|-------------|-----------6-|
C#|--3----------3-|-----------6-|-----------6-|-----------6-|
G#|--3--3--3--3-3-|---3--3--3-6-|---6--6--6-6-|---6--6--6-4-|
D#|--1--1--1--1-1-|---1--1--1-4-|---4--4--4-4-|---4--4--4---|
      .  .  .       .  .  .       .  .  .       .  .  .


D#|-------------|-------------|-------------|-------------|
A#|-------------|-------------|-------------|-------------|
F#|-----------6-|-------------|-------------|-------------|
C#|---6--6--6-6-|---6--6--6-6-|-------------|-------------|
G#|---4--4--4-4-|---4--4--4-6-|---6--6--6-6-|---6--6------|
D#|-------------|-----------4-|---4--4--4-3-|---3--3------|
    .  .  .       .  .  .       .  .  .       .  .

 
  lead part:
                let ring
D#|----------|-------|--------------|-----------------|
A#|----------|-------|--------------|-----------------|
F#|-----8----//11----|------/14-----|-12-----8----10--|
C#|----------|-------|--------------|-----------------|
G#|-----6----///9----|------/12-----|-10-----6-----8--|
D#|----------|-------|--------------|-----------------|


D#|-------------------------|------------------------|
A#|-------------------------|------------------------|
F#|-10-11-10-11-10-11-10-11-|-10-11-10-11-10-11------|
C#|-------------------------|------------------------|
G#|--8--8--8--8--8--8--8--8-|--8--8--8--8--8--8------|
D#|-------------------------|------------------------|

[Pre-Chorus] 
lead part:

   let ring throughout

D#|-----|---------11------|---------11------|-----------|
A#|---9-|------9-------9--|------9-------9--|-----------|
F#|-----|-10--------------|-10--------------|-8---------|
C#|-----|-----------------|-----------------|-----------|
G#|-----|-----------------|-----------------|-----------|
D#|-----|-----------------|-----------------|-----------|


D#|-----|---------11------|---------11------|-----------|
A#|---9-|------9-------9--|------9-------9--|-11--------|
F#|-----|-10--------------|-10--------------|-----------|
C#|-----|-----------------|-----------------|-----------|
G#|-----|-----------------|-----------------|-----------|
D#|-----|-----------------|-----------------|-----------|

 
rythm part:

D#|---------------|----------------|---------------|---------------|
A#|---------------|----------------|---------------|---------------|
F#|----6--6-6-6-6-|--6-6---6-6-6-6-|-8--8--8-8-8-8-|--8-8--8-8-8-8-|
C#|----6--6-6-6-6-|--6-6---6-6-6-6-|-8--8--8-8-8-8-|--8-8--8-8-8-8-|
G#|----4--4-4-4-4-|--4-4---4-4-4-4-|-6--6--6-6-6-6-|--6-6--6-6-6-6-|
D#|---------------|----------------|---------------|---------------|


D#|---------------|----------------|---------------|---------------|
A#|---------------|----------------|---------------|---------------|
F#|----6--6-6-6-6-|--6-6---6-6-6-6-|-8-------------|---------------|
C#|----6--6-6-6-6-|--6-6---6-6-6-6-|-8-------------|-1-------------|
G#|----4--4-4-4-4-|--4-4---4-4-4-4-|-6-------------|-1-------------|
D#|---------------|----------------|---------------|-0-------------|

[Chorus]
D#|---------------|----------------|---------------|----------------|
A#|---------------|----------------|---------------|----------------|
F#|---------------|----------------|---------------|----------------|
C#|-3--3--3-3-3-3-|--3-3---3-3-3-3-|-6--6--6-6-6-6-|--6-6---6-6-6-6-|
G#|-3--3--3-3-3-3-|--3-3---3-3-3-3-|-6--6--6-6-6-6-|--6-6---6-6-6-6-|
D#|-1--1--1-1-1-1-|--1-1---1-1-1-1-|-4--4--4-4-4-4-|--4-4---4-4-4-4-|


D#|---------------|----------------|---------------|----------------|
A#|---------------|----------------|---------------|----------------|
F#|-6--6--6-6-6-6-|--6-6---6-6-6-6-|---------------|----------------|
C#|-6--6--6-6-6-6-|--6-6---6-6-6-6-|-6--6--6-6-6-5-|--5-5-5-5-5-5-5-|
G#|-4--4--4-4-4-4-|--4-4---4-4-4-4-|-6--6--6-6-6-5-|--5-5-5-5-5-5-5-|
D#|---------------|----------------|-4--4--4-4-4-3-|--3-3-3-3-3-3-3-|


D#|---------------|----------------|---------------|----------------|
A#|---------------|----------------|---------------|----------------|
F#|---------------|----------------|---------------|----------------|
C#|-3--3--3-3-3-3-|--3-3---3-3-3-3-|-6--6--6-6-6-6-|--6-6---6-6-6-6-|
G#|-3--3--3-3-3-3-|--3-3---3-3-3-3-|-6--6--6-6-6-6-|--6-6---6-6-6-6-|
D#|-1--1--1-1-1-1-|--1-1---1-1-1-1-|-4--4--4-4-4-4-|--4-4---4-4-4-4-|


D#|---------------|----------------|---------------|----------------|
A#|---------------|----------------|---------------|----------------|
F#|-6--6--6-6-6-6-|--6-6---6-6-6-6-|---------------|----------------|
C#|-6--6--6-6-6-6-|--6-6---6-6-6-6-|-6-----------5-|----------------|
G#|-4--4--4-4-4-4-|--4-4---4-4-4-4-|-6-----------5-|----------------|
D#|---------------|----------------|-4-----------3-|----------------|
                                                         ^ bridge 1 starts here!

[Bridge 1]

lead part:

D#|--------------|-----------------|------------------|-----------------|-------------------|
A#|--------------|-----------------|------------------|-----------------|-------------------|
F#|-----8-8-8-10-|---10--10--10-13-|-13--12--8-8-8-10-|---10--10--10-13-|-13--12--8-8-8-10--|
C#|--------------|-----------------|------------------|-----------------|-------------------|
G#|-----6-6-6-8--|----8---8---8-11-|-11--10--6-6-6--8-|----8---8---8-11-|-11--10--6-6-6--8--|
D#|--------------|-----------------|------------------|-----------------|-------------------|
                                                                                 ^ rhy 
gtr enters

D#|-----------------|------------------|-----------------|-------------------|
A#|-----------------|------------------|-----------------|-------------------|
F#|---10--10--10-13-|-13--12--8-8---10-|---10--10--10-13-|-13--12--8-8-8-10--|
C#|-----------------|------------------|-----------------|-------------------|
G#|----8---8---8-11-|-11--10--6-6----8-|----8---8---8-11-|-11--10--6-6-6--8--|
D#|-----------------|------------------|-----------------|-------------------|


D#|-----------------|------------------|-----------------|-------------------|
A#|-----------------|------------------|-----------------|-------------------|
F#|---10--10--10-13-|-13--12--8-8---10-|---10--10--10-13-|-13--10-11b--------|
C#|-----------------|------------------|-----------------|-------------------|
G#|----8---8---8-11-|-11--10--6-6----8-|----8---8---8-11-|-11---8------------|
D#|-----------------|------------------|-----------------|-------------------|
                                                                 bend and let ring


rythm part:

D#|-----|----------------|----------------|----------------|----------------|
A#|-----|----------------|----------------|----------------|----------------|
F#|-----|----------------|--------4-4-----|----------------|--------4-4-4---|
C#|---3-|----3---3---3---|-3---3--4-4---3-|----3---3---3---|-3---3--4-4-4-3-|
G#|---3-|----3---3---3---|-3---3--2-2---3-|----3---3---3---|-3---3--2-2-2-3-|
D#|---1-|----1---1---1---|-1---1--------1-|----1---1---1---|-1---1--------1-|


D#|-----|----------------|----------------|----------------|--------------|
A#|-----|----------------|----------------|----------------|--------------|
F#|-----|----------------|--------4-4-----|----------------|-4--4--4------|
C#|---3-|----3---3---3---|-3---3--4-4---3-|----3---3---3---|-4--4--4------|
G#|---3-|----3---3---3---|-3---3--2-2---3-|----3---3---3---|-2--2--2------|
D#|---1-|----1---1---1---|-1---1--------1-|----1---1---1---|--------------|
                                                                 let ring....

[Bridge 2]

lead part:

D#|-----------------|------------------|-----------------|-------------------|
A#|-----------------|------------------|-----------------|-------------------|
F#|---10--10--10-13-|-13--12--8-8---10-|---10--10--10-13-|-13--12--8-8-8-10--|
C#|-----------------|------------------|-----------------|-------------------|  x7
G#|----8---8---8-11-|-11--10--6-6----8-|----8---8---8-11-|-11--10--6-6-6--8--|
D#|-----------------|------------------|-----------------|-------------------|


D#|-----------|-----------|
A#|-----------|-----------|
F#|-6----7----|-8-----9---|
C#|-----------|-----------|
G#|-4----5----|-6-----7---|
D#|-----------|-----------|
 

rythm part:

D#|----------------|----------------|----------------|----------------|
A#|----------------|----------------|----------------|----------------|
F#|----------------|----------------|----------------|--------------6-|
C#|--3-3---3-3-3-3-|--3-3---3-3-3-1-|--1-1---1-1-1-1-|--1-1---1-1-1-6-|
G#|--3-3---3-3-3-3-|--3-3---3-3-3-1-|--1-1---1-1-1-1-|--1-1---1-1-1-4-|
D#|--1-1---1-1-1-1-|--1-1---1-1-1-0-|--0-0---0-0-0-0-|--0-0---0-0-0---|


D#|----------------|----------------|----------------|----------------|
A#|----------------|----------------|----------------|----------------|
F#|--6-6---6-6-6-6-|--6-6---6-6-6-8-|--8-8---8-8-8-8-|--8-8---x-x-x---|
C#|--6-6---6-6-6-6-|--6-6---6-6-6-8-|--8-8---8-8-8-8-|--8-8---x-x-x-3-|
G#|--4-4---4-4-4-4-|--4-4---4-4-4-6-|--6-6---6-6-6-6-|--6-6---x-x-x-3-|
D#|----------------|----------------|----------------|--------------1-|


D#|----------------|----------------|----------------|----------------|
A#|----------------|----------------|----------------|----------------|
F#|----------------|----------------|----------------|--------------6-|
C#|--3-3---3-3-3-3-|--3-3---3-3-3-1-|--1-1---1-1-1-1-|--1-1---1-1-1-6-|
G#|--3-3---3-3-3-3-|--3-3---3-3-3-1-|--1-1---1-1-1-1-|--1-1---1-1-1-4-|
D#|--1-1---1-1-1-1-|--1-1---1-1-1-0-|--0-0---0-0-0-0-|--0-0---0-0-0---|


D#|----------------|----------------|----------------|----------------|
A#|----------------|----------------|----------------|----------------|
F#|--6-6---6-6-6-6-|--6-6---6-6-6-x-|-6--------------|-8--------------|
C#|--6-6---6-6-6-6-|--6-6---6-6-6-x-|-6-------8------|-8------10------|
G#|--4-4---4-4-4-4-|--4-4---4-4-4-x-|-4-------8------|-6------10------|
D#|----------------|----------------|---------6------|---------8------|

[Bridge 3]
rythm guitar:

    let ring.............then pause.
D#|------------------|
A#|------------------|
F#|-10---------------|
C#|-10---------------|
G#|--8---------------|
D#|------------------|
 

clean guitar:

D#|-----------------|-----------------|-----------------|------------------|
A#|-----------------|-----------------|-----------------|------------------|
F#|---5-3-5---5-3-5-|---5-3-5---5-3-5-|---5-3-5---5-3-5-|---5-3-5---5-3-5--|
C#|-3-------3-------|-3-------3-------|-6-------6-------|-6-------6--------|
G#|-----------------|-----------------|-----------------|------------------|
D#|-----------------|-----------------|-----------------|------------------|


D#|-----------------|-----------------|-----------------|------------------|
A#|-----------------|-----------------|-----------------|------------------|
F#|---5-3-5---5-3-5-|---5-3-5---5-3-5-|---5-3-5---5-3-5-|---5-3-5---5-3-5--|
C#|-----------------|-----------------|-6-------6-------|-5-------5--------|
G#|-4-------4-------|-4-------4-------|-----------------|------------------|
D#|-----------------|-----------------|-----------------|------------------|


D#|-----------------|-----------------|-----------------|------------------|
A#|-----------------|-----------------|-----------------|------------------|
F#|---5-3-5---5-3-5-|---5-3-5---5-3-5-|---5-3-5---5-3-5-|---5-3-5---5-3-5--|
C#|-3-------3-------|-3-------3-------|-6-------6-------|-6-------6--------|
G#|-----------------|-----------------|-----------------|------------------|
D#|-----------------|-----------------|-----------------|------------------|


D#|-----------------|-----------------|-----------------|------------------|
A#|-----------------|-----------------|-----------------|------------------|
F#|---5-3-5---5-3-5-|---5-3-5---5-3-5-|---5-3-5---5-3-5-|---5-3-5---5-3-5--|
C#|-----------------|-----------------|-6-------6-------|-5-------5--------|
G#|-4-------4-------|-4-------4-------|-----------------|------------------|
D#|-----------------|-----------------|-----------------|------------------|
^ lead part starts

D#|---------------------|--------------------|
A#|---------------------|--------------------|
F#|----5--3-5----5--3-5-|----5--3-5---5--3-5-|
C#|--3---------3--------|--3--------3--------|    x3
G#|---------------------|--------------------|
D#|---------------------|--------------------|
 

lead part:


D#|--------|-----------11--------|--------------------|
A#|-----9--|-------9---------9---|-------9--------9---|
F#|--------|-10------------------|-10--------8--------|
C#|--------|---------------------|--------------------|
G#|--------|---------------------|--------------------|
D#|--------|---------------------|--------------------|


D#|-----------11--------|---------------------|
A#|-------9---------9---|-------9--------9----|
F#|-10------------------|-10--------8---------|
C#|---------------------|---------------------|
G#|---------------------|---------------------|
D#|---------------------|---------------------|


D#|-----------11--------|--------------------|------------|-------|
A#|-------9---------9---|-------9--------9---|-11---------|-------|
F#|-10------------------|-10--------8--------|------------|-------|
C#|---------------------|--------------------|------------|-------|
G#|---------------------|--------------------|------------|-------|
D#|---------------------|--------------------|------------|-------|

[Chorus] 
D#|---------------|----------------|---------------|----------------|
A#|---------------|----------------|---------------|----------------|
F#|---------------|----------------|---------------|----------------|
C#|-3--3--3-3-3-3-|--3-3---3-3-3-3-|-6--6--6-6-6-6-|--6-6---6-6-6-6-|
G#|-3--3--3-3-3-3-|--3-3---3-3-3-3-|-6--6--6-6-6-6-|--6-6---6-6-6-6-|
D#|-1--1--1-1-1-1-|--1-1---1-1-1-1-|-4--4--4-4-4-4-|--4-4---4-4-4-4-|


D#|---------------|----------------|---------------|----------------|
A#|---------------|----------------|---------------|----------------|
F#|-6--6--6-6-6-6-|--6-6---6-6-6-6-|---------------|----------------|
C#|-6--6--6-6-6-6-|--6-6---6-6-6-6-|-6--6--6-6-6-5-|--5-5-5-5-5-5-5-|
G#|-4--4--4-4-4-4-|--4-4---4-4-4-4-|-6--6--6-6-6-6-|--6-6-6-6-6-6-6-|
D#|---------------|----------------|-4--4--4-4-4-3-|--3-3-3-3-3-3-3-|


D#|---------------|----------------|---------------|----------------|
A#|---------------|----------------|---------------|----------------|
F#|---------------|----------------|---------------|----------------|
C#|-3--3--3-3-3-3-|--3-3---3-3-3-3-|-6--6--6-6-6-6-|--6-6---6-6-6-6-|
G#|-3--3--3-3-3-3-|--3-3---3-3-3-3-|-6--6--6-6-6-6-|--6-6---6-6-6-6-|
D#|-1--1--1-1-1-1-|--1-1---1-1-1-1-|-4--4--4-4-4-4-|--4-4---4-4-4-4-|


D#|---------------|----------------|---------------|----------------|
A#|---------------|----------------|---------------|----------------|
F#|-6--6--6-6-6-6-|--6-6---6-6-6-6-|---------------|----------------|
C#|-6--6--6-6-6-6-|--6-6---6-6-6-6-|-6--6--6-6-6-5-|--5-5-5-5-5-5-5-|
G#|-4--4--4-4-4-4-|--4-4---4-4-4-4-|-6--6--6-6-6-5-|--5-5-5-5-5-5-5-|
D#|---------------|----------------|-4--4--4-4-4-3-|--3-3-3-3-3-3-3-|

[Outro]
lead part 1:

D#|------------------|--------------------|--------------------|----------------------|
A#|------------------|--------------------|--------------------|----------------------|
F#|-17\----13-----15-|--17---15---13---17-|----17--17-17-17-17-|--17-17--17-17-17-17--|
C#|------------------|--------------------|--------------------|----------------------|
G#|-15\----11-----13-|--15---13---11---15-|----15--15-15-15-15-|--15-15--15-15-15-15--|
D#|------------------|--------------------|--------------------|----------------------|


D#|------------------|--------------------|--------------------|----------------------|
A#|------------------|--------------------|--------------------|----------------------|
F#|-17\----13-----15-|--17---15---13---13-|----13--13-13-13-12-|--12-12---12-12-12-12-|
C#|------------------|--------------------|--------------------|----------------------|
G#|-15\----11-----13-|--15---13---11---11-|----11--11-11-11-10-|--10-11---10-11-10-11-|
D#|------------------|--------------------|--------------------|----------------------|


D#|------------------|--------------------|--------------------|----------------------|
A#|------------------|--------------------|--------------------|----------------------|
F#|-17\----13-----15-|--17---15---13---17-|----17--17-17-17-17-|--17-17--17-17-17-17--|
C#|------------------|--------------------|--------------------|----------------------|
G#|-15\----11-----13-|--15---13---11---15-|----15--15-15-15-15-|--15-15--15-15-15-15--|
D#|------------------|--------------------|--------------------|----------------------|


D#|------------------|--------------------|--------------------|----------------------|
A#|------------------|--------------------|--------------------|----------------------|
F#|-17\----13-----15-|--17---15---13---13-|--------------------|----------------------|
C#|------------------|--------------------|--------------------|----------------------|
G#|-15\----11-----13-|--15---13---11---11-|--------------------|----------------------|
D#|------------------|--------------------|--------------------|----------------------|

 
lead part 2:

pause 8 measures, then:

D#|------------------|--------------------|--------------------|----------------------|
A#|------------------|--------------------|--------------------|----------------------|
F#|-10------5-----12-|--13---12---10----8-|-----8---8--8--8--8-|---8--8---8--8--8--8--|
C#|------------------|--------------------|--------------------|----------------------|
G#|--8------3-----10-|--11---10----8----6-|-----6---6--6--6--6-|---6--6---6--6--6--6--|
D#|------------------|--------------------|--------------------|----------------------|


D#|------------------|--------------------|--------------------|-----------------------|
A#|------------------|--------------------|--------------------|-----------------------|
F#|-10------6-----12-|--13---12---10---15-|--------------------|-----------------------|
C#|------------------|--------------------|--------------------|-----------------------|
G#|--8------4-----10-|--11---10----8---13-|--------------------|-----------------------|
D#|------------------|--------------------|--------------------|-----------------------|
 

rythm part:

D#|---------------|----------------|---------------|----------------|
A#|---------------|----------------|---------------|----------------|
F#|---------------|----------------|---------------|----------------|
C#|-3--3--3-3-3-3-|--3-3---3-3-3-3-|-6--6--6-6-6-6-|--6-6---6-6-6-6-|
G#|-3--3--3-3-3-3-|--3-3---3-3-3-3-|-6--6--6-6-6-6-|--6-6---6-6-6-6-|
D#|-1--1--1-1-1-1-|--1-1---1-1-1-1-|-4--4--4-4-4-4-|--4-4---4-4-4-4-|


D#|---------------|----------------|---------------|----------------|
A#|---------------|----------------|---------------|----------------|
F#|-6--6--6-6-6-6-|--6-6---6-6-6-6-|---------------|----------------|
C#|-6--6--6-6-6-6-|--6-6---6-6-6-6-|-6--6--6-6-6-5-|--5-5-5-5-5-5-5-|
G#|-4--4--4-4-4-4-|--4-4---4-4-4-4-|-6--6--6-6-6-5-|--5-5-5-5-5-5-5-|
D#|---------------|----------------|-4--4--4-4-4-3-|--3-3-3-3-3-3-3-|


D#|---------------|----------------|---------------|----------------|
A#|---------------|----------------|---------------|----------------|
F#|---------------|----------------|---------------|----------------|
C#|-3--3--3-3-3-3-|--3-3---3-3-3-3-|-6--6--6-6-6-6-|--6-6---6-6-6-6-|
G#|-3--3--3-3-3-3-|--3-3---3-3-3-3-|-6--6--6-6-6-6-|--6-6---6-6-6-6-|
D#|-1--1--1-1-1-1-|--1-1---1-1-1-1-|-4--4--4-4-4-4-|--4-4---4-4-4-4-|


D#|---------------|----------------|---------------|----------------|
A#|---------------|----------------|---------------|----------------|
F#|-6--6--6-6-6-6-|--6-6---6-6-6-6-|---------------|----------------|
C#|-6--6--6-6-6-6-|--6-6---6-6-6-6-|-6-----------5-|----------------|
G#|-4--4--4-4-4-4-|--4-4---4-4-4-4-|-6-----------5-|----------------|
D#|---------------|----------------|-4-----------3-|----------------|


D#|----------|----------|-----*|
A#|----------|----------|-----*|
F#|----------|----------|-----*|
C#|-3--------|-4\-------|-----*|
G#|-3--------|-4\-------|-----*|
D#|-1--------|-2\-------|-----*| 


************************************

| x  Dead note
| b  Bend
| /  Slide up
| \  Slide down 
|(.) Palm mute

************************************
Suggest correction
comments
print report bad tab
guest
You may want to rate the tab now too:
select rating
Please do not post tabs as comments. Select "correction" instead!