Oops, an error
Loading. Please wait.
We have an official Savior tab made by UG professional guitarists. Check out the tab »
×
805 views 6 this week
no commentswrite comment
1 2 3 4 5
3 more votes to show rating
add to favorites
×
Save as Personal and add changes to this tab that will be seen only by you. Learn more ›
×
You can save this tab as Personal to edit and correct it or add notes. All changes will be seen only by you. Learn more »
launch autoscroll
font size
0
reset
how to read this tab
guitar tuner
backing track
0:00
0:00
edit
Autoscroll
slow
fast
+/-
esc
set tempo
stop
-------------------------------------------------------------------------------
                             Savior - Rise Against
-------------------------------------------------------------------------------
Tabbed by: Mats Cornelissen
E-mail: matshoi@hotmail.com

Tuning:Half-Step Down

Intro
e|----------------------------------------------------------------------------|
B|-2---------------2-----------2-2-2-2-2-2-2-2-2-2-2-2-2-2-2-2----------------|
G|-------2-----4-------4---2---2-2-2-2-2-2-2-2-2-2-2-2-2-2-2-------2-----4----|
D|-4-4-4-4-4-4-4-4-4-4-4-4-4-4-0-----------------------------0-0-0-0-0-0-0----|
A|----------------------------------------------------------------------------|
E|----------------------------------------------------------------------------|
     . .   . .   .   .   .   .   . . . . . . . . . . . . . .   . .   . .
e|-------------------------------------------|--------------------------------|
B|---2-----------------------]----------------|-------------------------------|
G|-------4---2---2-----2-----1-------1-------|-------------------------------1|
D|-0-0-0-0-0-0-0-2-2-2-2-2-2-2-2-2-2-2-2-2-2-|-(2X)-(second time from ] Hold 2|
A|-------------------------------------------|--------------------------4 sec-|
E|-------------------------------------------|--------------------------------|
   .   .   .   .   . .   . .   . . .   . . .
Verse
e|---------------------------------------------------------------------------|
B|---------------------------------------------------------------------------|
G|-18--14141414-16-18-16-14-18-18-----18------14141414-16-18-16--------------|
D|-x---x-x-x-x--x--x--x--x--x--x------x-------x-x-x-x-x--x--x----------------|
A|-16--12121212-14-16-14-12-16-16(8x)-16(8x)--12121212-14-16-14--------------|
E|---------------------------------------------------------------------------|

e|---------------------------------------------------------------------------|
B|---------------------------------------------------------------------------|
G|-14-1414-14-14-141414-13-13-----1618-14141414-16-18-16-14-18-18------18----|
D|-x--x-x--x--x--x-x-x--x--x------x-x--x-x-x-x--x--x--x--x--x--x-------x-----|
A|-12-1212-12-12-121212-11-11(8x)-1416-12121212-14-16-14-12-16-16(14x)-16----|
E|-------------------------------|-------------------------------------------|
                                Half
e|---------------------------------------------------------------------------|
B|---------------------------------------------------------------------------|
G|-14141414-16-18-16-14-1414-14-14-141414-13-13------------------------------|
D|-x-x-x-x--x--x--x--x--x-x--x--x--x-x-x--x--x-------------------------------|
A|-12121212-14-16-14-12-1212-12-12-121212-11-11(8x)--------------------------|
E|-----------------------------|---------------------------------------------|
Fill                          For Ending
e|---------------------------------------------------------------------------|
B|---------------------------------------------------------------------------|
G|-11------------9/11--------------------------------------------------------|
D|-x-------------x/x---------------------------------------------------------|
A|-9-(Hold 8sec)-7/9-(Hold 8 Sec)--(2sec rest)-------------------------------|
E|---------------------------------------------------------------------------|

Pre-Chorus
e|----------12-----------|---------------------------------------------------|
B|-10----10----10----10--|-(3X)-10-10/12(1sec)/down--------------------------|
G|----11----------11----9|---------------------------------------------------|
D|---------------------------------------------------------------------------|
A|---------------------------------------------------------------------------|
E|---------------------------------------------------------------------------|
Chorus
e|---------------------------------------------------------------------------|
B|---------------------------------------------------------------------------|
G|-----------------------------------------------7-7-7777-77-7777------------|
D|-(1sec rest)-4-4-4444-44-4444-7-7-7777-77-7777-7-7-7777-77-7777-(2X)-------|
A|-------------4-4-4444-44-4444-7-7-7777-77-7777-5-5-5555-55-5555------------|
E|-------------2-2-2222-22-2222-5-5-5555-55-5555-----------------------------|

e|---------------------------------------------------------------------------|
B|---------------------------------------------------------------------------|
G|----------------------------------------------------7-7-7777-77-7777-------|
D|-7-7-7776-66-6666-4-4-4444-44-4444-7-7-7777-77-7777-7-7-7777-77-7777-7--6--|
A|-7-7-7777-77-7777-4-4-4444-44-4444-7-7-7777-77-7777-5-5-5555-55-5555-7--7--|
E|-5-5-5554-44-4444-2-2-2222-22-2222-5-5-5555-55-5555------------------5--4--|

Half Verse

e|---------------------------------------------------------------------------|
B|---------------------------------------------------------------------------|
G|-11------------99-11-------------14-13-9/11------11------------------------|
D|-x-------------xx-x--------------x--x--x/x-------x-------------------------|
A|-9-(Hold 8sec)-77-9-(Hold 4 Sec)-12-11-7/9(2sec)-9-(16x)-------------------|
E|---------------------------------------------------------------------------|

Pre-Chorus (1X)
Chorus (1X)
Bridge
e|---------------------|---------------------|---------------------------|----|
B|---------------------|---------------------|---------------------------|----|
G|-99-11-11-11-1114-13-|------12-12-12-------|-11-111111111111-14-13-999-|----|
D|-xx-x--x--x--x-x--x--|-(6X)-x--x--x--------|-x--x-x-x-x-x-x--x--x--xxx-|-(7X)
A|-77-9--9--9--9-12-11-|------10-10-10(1sec)-|-9--9-9-9-9-9-9--12-11-777-|----|
E|---------------------|---------------------|---------------------------|----|

e|-------------|----------|-----|---------|------|---------|-----|---------|--|
B|-------------|-----0----|-----|-----0---|------|-----0---|-----|-----0---|--|
G|-7-----9-----|---6---6--|-(4X)|---6---6-|-(4X)-|---6---6-|-(4X)|---6---6-|-(2X)
D|-7--9--9--11-|-4--------|-----|-7-------|------|-0-------|-----|-7-------|--|
A|-6--9--7--11----------------------------------------------------------------|
E|----7-----9-----------------------------------------------------------------|

e|---------|------|---------|-----|---------|------|---------|-----|---------|-------------|
B|-----0---|------|-----0---|-----|-----0---|------|-----0---|-----|-----0---|--------0----|
G|---6---6-|-(2X)-|---6---6-|-(4X)|---6---6-|-(4X)-|---6---6-|-(4X)|---6---6-|-(2X)-6---6--|
D|-6-------|------|-4-------|-----|-7-------|------|-0-------|-----|-7-------|-----6------6|
A|-----------------------------------------------------------------------------------------|
E|-----------------------------------------------------------------------------------------|

Pre-Chorus riff 3X Half speed + 10/12/down ending

Chorus Twice ending with 6 66 6666 
Verse till For ending    7 77 7777 
                         4 44 4444
e|---------------------------------------------------------------------------|
B|---------------------------------------------------------------------------|
G|---------------------------------------------------------------------------|
D|-6--4---4------------------------------------------------------------------|
A|-7--4---4------------------------------------------------------------------|
E|-4--2(1)2------------------------------------------------------------------|

            
            
Suggest correction
Creating personal tab
Creating personal tab
You can edit any tab online and save it as your Personal.

You can edit, replace or remove any tab part or add personal notes – all changes will be seen only by you.

Personal tabs can be accessed anytime from any device, even offline.
Learn more »
Give kudos to tab author, rate the tab!
1 2 3 4 5
comments
print report bad tab
guest
Wanna post a correction for this tab? Suggest correction