Oops, an error
Loading. Please wait.

Sight Unseen Tab

version 1
version 1

Whole song

2,255 views 3 this week
1 commentread comment
1 2 3 4 5
excellent!
x 5
add to favorites
launch autoscroll
font size
0
reset
how to read this tab
guitar tuner
Tab Pro tools
  • play this tab
  • loop segment
  • change instrument
  • show fretboard
  • metronome
×
Best way to learn
"Sight Unseen"
Autoscroll
slow
fast
+/-
esc
set tempo
stop
Contributor
Difficulty
Tuning
novice
D# G# C# F# A# D#
-------------------------------------------------------------------------------
                             SIGHT UNSEEN - Rise Against
-------------------------------------------------------------------------------

Tuning: eb Bb F# C# G# Eb

INTRO

Guitar 1
|----------------------|
|-0---000-0000-0---3h5-|
|-4h5-555-4444-4h5-----|
|----------------------| X4
|----------------------|
|----------------------|

Guitar 2
|---------------------|
|---------------------|
|---------------------|
|-7----2----5---5-5-5-| X2
|-7----2----5---5-5-5-|
|-5----0----3---3-3-3-|


VERSE

Guitar 1&2
|--------------------|
|--------------------|
|--------------------|
|-777-222-5555555555-| X8
|-777-222-5555555555-|
|-555-000-3333333333-|
  xxx xxx xxxxxxxxxx

Guitar 1
|------------------|
|-0---000-0-0-0000-|
|-4h5-555-4-4-4444-|
|------------------| X4
|------------------|
|------------------|


PRE-VERSE

Guitar 1&2
|----------------------------------------xx---xx-|
|----------------------------------------xx---xx-|
|----------------------------------------xx---xx-|
|-3--3--33-3--3--3--33-3--3--3--33-3---5-xx-5-xx-| X4
|-3--3--33-3--3--3--33-3--3--3--33-3---5-xx-5-xx-|
|-1--1--11-1--1--1--11-1--1--1--11-1---3-xx-3-xx-|


Guitar 1
|-------------------------------------xx---xx-|
|-------------------------------------xx---xx-|
|-10-10-1010-10--10/9--9/7--7/5-5-----xx---xx-|
|------------------/----/----/------5-xx-5-xx-|
|-8--8--8-8--8---8-/7--7/5--5/3-3---5-xx-5-xx-|
|-----------------------------------3-xx-3-xx-|

Guitar 1
|----------------------------------------------|
|----------------------------------------------|
|-10-10-1010-10-10-10-1010-10-12-12-1212-12-12-|
|----------------------------------------------|
|-8--8--8-8--8--8--8--8-8--8--10-10-1010-10-10-|
|----------------------------------------------|


CHORUS

|--------------------------------------------|
|--------------------------------------------|
|------10101010-5555------7-777777-----------|
|-7777-10101010-5555-5555-7-777777--3-333333-|
|-7777-8-8-8-8--3333-5555-5-555555--3-333333-|
|-5555---------------3333-----------1-111111-|

|-----------------------------------------------------|
|-----------------------------------------------------|
|------10101010-5555------7-777--9--10-10101010101010-|
|-7777-10101010-5555-5555-----------------------------|
|-7777-8-8-8-8--3333-5555-5-555--7--8--8-8-8-8-8-8-8--|
|-5555---------------3333-----------------------------|

|--------------------------------------------|
|--------------------------------------------|
|------10101010-5555------7-777777-----------|
|-7777-10101010-5555-5555-7-777777--3-333333-|
|-7777-8-8-8-8--3333-5555-5-555555--3-333333-|
|-5555---------------3333-----------1-111111-|

|----------------------------------------|
|----------------------------------------|
|----------------------------------------|
|-5-55555555555555555555555555555555-7~~-|
|-5-55555555555555555555555555555555-7~~-|
|-3-33333333333333333333333333333333-5~~-|


POST-CHORUS

Guitar 1
|-----------------------------0~-|
|-0---0~~~--------3h5-0~~~----0~-|
|-4h5-4~~~----4h5-----4~~~----0~-|
|--------------------------------|
|--------------------------------|
|--------------------------------|


VERSE

PRE-VERSE

CHORUS

BRIDGE

Guitar 1
|----------------------------------|
|----------------------------------|
|----------------------------------|
|-77777777777777777777777777777777-|
|-77777777777777777777777777777777-|
|-55555555555555555555555555555555-|
  xxxxxxxxxxxxxxxxxxxxxxxxxxxxxxxx

Guitar 2
|----------------------------------|
|----------------------------------|
|-99999999999999999999999999999999-|
|----------------------------------|
|-77777777777777777777777777777777-|
|----------------------------------|


Guitar 1
|----xxxx----xxxx----xx-|
|----xxxx----xxxx----xx-|
|----xxxx----xxxx----xx-|
|-77-xxxx-77-xxxx-77-xx-| X4
|-77-xxxx-77-xxxx-77-xx-|
|-55-xxxx-55-xxxx-55-xx-|

Guitar 2
|-----------------------------------------------------------------|
|-----------------------------------------------------------------|
|-9999999999999999-7777777777777777-5555555555555555-4444444444-4-|
|-----------------------------------------------------------------| 
|-7777777777777777-5555555555555555-3333333333333333-2222222222-2-|
|-----------------------------------------------------------------|


Guitar 1&2
|--------|
|--------|
|--------|
|--------|
|--------|
|-3b~~~~-|


Guitar 1&2
|-----------------------------------|
|-----------------------------------|
|-----------------------------------|
|-77-77-3~~-77-77---77-77-3~~-77-77-|
|-77-77-3~~-77-77---77-77-3~~-77-77-|
|-55-55-1~~-55-55---55-55-1~~-55-55-|


Guitar 1
|---------------------|
|---------------------|
|---------------------|
|-77-77-3~~-77-77-3~~-| X4
|-77-77-3~~-77-77-3~~-|
|-55-55-1~~-55-55-1~~-|

Guitar 2
|---------------------------------------------------------------------|
|---------------------------------------------------------------------|
|-9999999999999999-7777777777777777-5555555555555555-4444444444444444-|
|---------------------------------------------------------------------| X2
|-7777777777777777-5555555555555555-3333333333333333-2222222222222222-|
|---------------------------------------------------------------------|


Guitar 1&2
|-------|
|-------|
|-5~~~~-|
|-5~~~~-|
|-3~~~~-|
|-------|


Guitar 1
|------------------------------|
|------------------------------|
|------------------------------|
|-7~~~~--5~~~~--3~~~~--5~~~~-5-|
|-7~~~~--5~~~~--3~~~~--5~~~~-5-|
|-5~~~~--3~~~~--1~~~~--3~~~~-3-|


CHORUS

OUTRO

|-------------------------|
|-------------------------|
|------10101010-5555------|
|-7777-10101010-5555-5555-| X3
|-7777-8-8-8-8--3333-5555-|
|-5555---------------3333-|

|----xxxx----|
|----xxxx----|
|----xxxx----|
|-77-xxxx-77-|
|-77-xxxx-77-|
|-55-xxxx-55-|

************************************

| /   slide up
| \   slide down
| h   hammer-on
| p   pull-off
| ~   vibrato
| +   harmonic
| x   Mute note
| b   Bend
| pb  Pre-bend
| br  Bend release
| pbr Pre-bend release
| brb Bend release bend

************************************
comments
print report bad tab
1 comment total.
0 reply
ChamsRock wrote on May 12 2010, 10:56 pm

Seems pretty good...

I want to post or [tab]
guest
You may want to rate the tab now too:
select rating
Please do not post tabs as comments. Select "correction" instead!