Oops, an error
Loading. Please wait.

Siren Song Of The Counter Culture Bass Tab

5,027 views 1 this week
1 commentread comment
1 2 3 4 5
x 3
add to favorites
launch autoscroll
font size
0
reset
guitar tuner
Autoscroll
slow
fast
+/-
esc
set tempo
stop
Help us to improve Ultimate-Guitar.com Take our survey!
×
Author
Ok, hopefully this works- I've never posted a tab before, but I thought this would be a 
first try.

All this is, is a collaboration of all the best Bass tabs from all the players here. 
tabs are already posted, I just collected them to save time for guitarists later to come. 
on that note, no amount of credit goes to me; I just copied and pasted.


Band- Rise Against
Song- State Of The Union

TUNING: Half Step Down Eb Ab Db Gb


Intro
G-------------------------------------------------4444555566667777----|
D---------------------------------2222333344445555--------------------|
A-----------------2222333344445555------------------------------------|
E-0000111122223333------------------------------------------------0---|

G----------------------------------------------|
D----------------------------------------------|
A----77---------------77-----------------------|
E-000--5-333-5-555-000--5-333-5-53-0356530-0---|

G-------------------------------------------------------------|
D-------------------------------------------------------------|
A----77--------------77--------------77-----------------------|
E-000--5-333-5-53-000--5-333-5-55-000--5-333-5-53-0356530-0---|

Verse
G--------------------------------------------------------|
D--------------------------------------------------------|
A---------22253---------333-3-33---------22253-----------|
E-70---70-------70---70----------70---70-------70---70---|

Pre-chorus
G---------------------------------------|
D---------------------------------------|
A-333-3-33-333-3-33-333-3-33-555-5-55---|
E---------------------------------------|

Chorus
G-----------------------------------------------------------|
D-----------------------------------------------------------|
A----77--------------77--------------77---------------------| 2x
E-000--5-333-5-53-000--5-333-5-55-000--5-333-5-53-0356530---|

Verse
Pre-chorus
Chorus 2x

Bridge
G----------------------------------------------------------------------|
D----------------------------------------------------------------------|
A----------------------------------------------------------------------|
E-356530356530-3-0-0-00-60050030-3-0-0-00-60050030-3-0-0-00-60050030---|

G----------------------------------------------------------------|
D----------------------------------------------------------------|
A----------------------------------------------------------------| 2x
E-035653-3-0-0-00-60050030-3-0-0-00-60050030-3-0-0-00-60050030---|

Outro
G-----------------------|
D-----------------------|
A-----------------------|
E-0356530356530356530---|




Band- Rise Against
Song- The Last Drop

TUNING: Eb Ab Db Gb Half Step Down

Intro/Chorus
G---------------|
D---------------|
A-0>-3>---------| 4x
E-------3>-1>---|

Verse 1
G----------------------------------------------------------|
D----------------------------------------------------------|
A-0>-----0>-333-0>-----8>-333--0>-----0>-333-0>--------3---|
E----333-----------333------------333-----------333-1>-----|

G----------------------------------------------------------|
D----------------------------------------------------------|
A-0>-----0>-333-0>-----8>-333--0>-----0>-333-0>------------|
E----333-----------333------------333-----------33-1>-3>---|

Intro/Chorus 4x

Verse 2
G-------------------------------------------------------------|
D-------------------------------------------------------------|
A-0>-----0>-333-0>-----8>-333--0>-----0>-333-0>-----8>-775----|
E----333-----------333------------333-----------333-------8---|

2nd line of Verse 1
Intro/Chorus 4x

Bridge
G-----------------------------------------|
D-----------------------------------------|
A-------------------------------------0---|
E-00-0-00--00-0-00--00-0-00--00-0-00------|

G--------------------|
D--------------------|
A---223355----3333---|
E-33------1111-------|

                                             2x
G------------------------------------------------|--------|
D------------------------------------------------|--------|
A-0>-----3>-0>--------0>-----3>---223355----3333-|-0----0-|
E-----1>--------1>-3>-----1>----33------1111-----|--------|

Intro/Chorus 4x

Outro
G-------|
D-------|
A---0---|
E-3-----|



Artist: Rise Against
Song: Life Less Frightening
Album: Siren Song of the Counter-Culture
Tabbed By: Steve Clark

Tune half-a-step down

Intro
G----------------------------------------------|
D-7>--------------------7>---------------------|
A-----8>-10>-0>--8>-10>-----8>-10>-------------|
E----------------------------------0>--1>-3>---|

         3x
G-----------|-------------|
D-----------|-------------|
A-0>--------|-------------| 2x
E-----1>-3>-|-0>--1>-3>---|

Verse
G-----------------------------------------------|
D-----------------------------------------------|
A-0>--8>-10>-0>--8>-10>-0>--8>-10>-7>--8>-10>---| 2x
E-----------------------------------------------|

Chorus
G----------------------------------------------------|
D----------------------------------------------------|
A-0>----3>-----0>----3>-7>-0>----3>----0>-8>-3>-7>---|
E----1>----3>-----1>----------1>----3>---------------|

Verse 2x
Chorus

Bridge
G------|---------------------------------------------|
D------|-7--7--7-/14--12--10--7--7--7-/14--12--10----|
A-0~---|--00-00-0---00--00--0--00-00-0---00--00--0---|
E------|---------------------------------------------|

                                              5x
-------------------------------------------------|
-/15--15--15-14--14--14-12--12--12--12--12--12---|
----00--00--0--00--00--0--00--00--00--00--00-----|
-------------------------------------------------|

G---------------------------------------------|
D-7--7--7-/14--12--10--7--7--7-/14--12--10----|
A--00-00-0---00--00--0--00-00-0---00--00--0---|
E---------------------------------------------|

G-------------------------------------|
D-/15--15--15-14--14--14--------------|
A----00--00--0--00--00--0-------------|
E-------------------------111111111---|

Chorus 2x

Outro
G-----|
D-----|
A-0---|
E-----|

Title:  Paper Wings
Artist:  Rise Against
Tabbed by:  Blake Rakoczi
E-mail:  Blake@sailormoonfan.com

Tuning:  Eb Standard


Intro - Note:  Wait for the guitar to play its riff once.
Gb|---------------------------------------------------------------------|
Db|---------------------------------------------------------------------|
Ab|-7-7-7-7-7-7-7-7--6-6-6-6----------4-4-4-4-4-4-4-4--0-0-0-0-0-0-0-0--| x2
Eb|--------------------------4-4-4-4------------------------------------|

First Verse
Gb|---------------------------------------------------------------------|
Db|------------------------------------------------------------7-6-4-6--|
Ab|-4-4--------------2-2-2/4-0-0-0-0--4-4--------------2-2-2/4----------| x1
Eb|---------0-0-0-0---------------------------0-0-0-0-------------------|

Gb|-------------------------------------------------------------------|
Db|-------------------------------------------------------------------|
Ab|-4-4--------------2-2-2/4-0-0-0-0--4-4-----------------------------| x1
Eb|---------0-0-0-0---------------------------0-0-0-0-----------------|

Pre-Chorus
Gb|---------------------------------------------------------------------|
Db|---------------------------------------------------------------------|
Ab|-2-2-2-2-2-2------0-0-0-0-0-0-0-0--2-2-2-2-2-2------0-0-0-0-2-2-2-2--| x1
Eb|-------------4-4-------------------------------4-4-------------------|

Chorus
Gb|---------------------------------------------------------------------|
Db|---------------------------------------------------------------------|
Ab|-7-7-7-7-7-7-7-7--6-6-6-6----------4-4-4-4-4-4-4-4--0-0-0-0-0-0-0-0--| x2
Eb|--------------------------4-4-4-4------------------------------------|

Second Verse
Gb|---------------------------------------------------------------------|
Db|------------------------------------------------------------7-6-4-6--|
Ab|-4-4--------------2-2-2/4-0-0-0-0--4-4--------------2-2-2/4----------| x1
Eb|---------0-0-0-0---------------------------0-0-0-0-------------------|

Gb|-------------------------------------------------------------------|
Db|-------------------------------------------------------------------|
Ab|-4-4--------------2-2-2/4-0-0-0-0--4-4-----------------------------| x1
Eb|---------0-0-0-0---------------------------0-0-0-0-----------------|

Pre-Chorus
Gb|---------------------------------------------------------------------|
Db|---------------------------------------------------------------------|
Ab|-2-2-2-2-2-2------0-0-0-0-0-0-0-0--2-2-2-2-2-2------0-0-0-0-2-2-2-2--| x1
Eb|-------------4-4-------------------------------4-4-------------------|

Chorus
Gb|---------------------------------------------------------------------|
Db|---------------------------------------------------------------------|
Ab|-7-7-7-7-7-7-7-7--6-6-6-6----------4-4-4-4-4-4-4-4--0-0-0-0-0-0-0-0--| x2
Eb|--------------------------4-4-4-4------------------------------------|

Bridge
Gb|-------------------------------------------------------------------|
Db|-------------------------------------------------------------------|
Ab|-------------------------------------------------------------------| x1
Eb|-0~~~~~~~~~~~~~~---------------------------------------------------|

Gb|-------------------------------------------------------------------|
Db|-------------------------------------------------------------------|
Ab|---------2-2-2----0-0-0-0-2-2-0------------------------------------| x3
Eb|-0-0-0-0-------4---------------42----------------------------------|

Gb|-------------------------------------------------------------------|
Db|-------------------------------------------------------------------|
Ab|---------2-2-2----0-0-0-0-0-0-0----2-2-2-2-2-2-2-2-----------------| x1
Eb|-0-0-0-0-------4----------------4----------------------------------|

Gb|-------------------------------------------------------------------|
Db|-------------------------------------------------------------------|
Ab|-------------------------------------------------------------------| x1
Eb|-0~~~~~~~~~~~~~~---------------------------------------------------|

Note:  Wait for guitar to play its riff once.
Gb|---------------------------------------------------------------------|
Db|---------------------------------------------------------------------|
Ab|----------------------------------------------------0-0-0-0-0-0-0-0--| x1
Eb|---------------------------------------------------------------------|

Chorus
Gb|---------------------------------------------------------------------|
Db|---------------------------------------------------------------------|
Ab|-7-7-7-7-7-7-7-7--6-6-6-6----------4-4-4-4-4-4-4-4--0-0-0-0-0-0-0-0--| x4
Eb|--------------------------4-4-4-4------------------------------------|

End On
Gb|-------------------------------------------------------------------|
Db|-------------------------------------------------------------------|
Ab|-------------------------------------------------------------------| x1
Eb|-0~~~~~~~~~~~~~~---------------------------------------------------|

Blood to bleed
Intro
Tuning: half step down

|-777/14-14-10-12-12-12--9--9--9-|
|-000--0--0--0--0--0--0-10-10-10-|
|--------------------------------| x4
|--------------------------------|

Verse

|-777/14-14-10-12-12-12--9--9--9-|    |-------------------------------|
|-000--0--0--0--0--0--0-10-10-10-|    |-------------------------------|
|--------------------------------| x3 |----------------5-5-5-5-5-5-5-5|
|--------------------------------|    |-1-1-1-1-3-3-3-3---------------|

Chorus

|------------------------------------|---------------------------------|
|------------------------------------|---------------------------------|
|11111111----------33333333-55555555-|11111111--------33333333-00000000|
|---------11111111-------------------|--------11111111-----------------|

|------------------------------------|---------------------------------|
|------------------------------------|---------------------------------|
|11111111----------33333333-55555555-|1111111111111111-3333333333333333|
|---------11111111-------------------|---------------------------------|

Verse

|-777/14-14-10-12-12-12--9--9--9-|    |-------------------------------|
|-000--0--0--0--0--0--0-10-10-10-|    |-------------------------------|
|--------------------------------| x3 |----------------5-5-5-5-5-5-5-5|
|--------------------------------|    |-1-1-1-1-3-3-3-3---------------|

Chorus

|------------------------------------|---------------------------------|
|------------------------------------|---------------------------------|
|11111111----------33333333-55555555-|11111111--------33333333-00000000|
|---------11111111-------------------|--------11111111-----------------|

|------------------------------------|---------------------------------|
|------------------------------------|---------------------------------|
|11111111----------33333333-55555555-|1111111111111111-3333333333333333|
|---------11111111-------------------|---------------------------------|

Solo

|------------------------------------------------------|
|------------------------------------------------------|
|-555555555555-111111111111---------------3333333333333| x3
|---------------------------1111111111111--------------|

|------------------------------------------------------|
|------------------------------------------------------|
|-555555555555-111111111111---------------0000000000000| x3
|---------------------------1111111111111--------------|

Verse

|-777/14-14-10-12-12-12-9--9--9--|    |-10-10-10-12-12-12-777777-|
|-000--0--0--0--0--0--0-10-10-10-|    |--0--0--0--0--0--0-000000-|
|--------------------------------| 3x |--------------------------|
|--------------------------------|    |--------------------------|

Outro

|-----------------------------------------------------------------|
|-----------------------------------------------------------------|
|11111111111111111111111111111111-33333333333333333333333333333333| x3
|-----------------------------------------------------------------|

|-----|
|-----|
|-5~--|
|-----|

Band- Rise Against
Song- To Them These Streets Belong

Intro

G|---------------------------------|
D|---------------------------------|
A|--4-6---2-4-6------4-6---2-4-1---| x 2
E|2---------------2----------------|


Verse - Part one

G|-----------|
D|-----------|  x3
A|>1->1->2->4|
E|-----------|

Verse - Part Two

G|-----------------------|
D|-----------------------|
A|>1->1->2->4->6--6-4-2--|
E|-----------------------|

Chorus

G|-------------------------------------------------------------|
D|-------------------------------------------------------------|
A|>2->4->6->2->2->4->6->6->2->4->6->2->2->4->6->6--------------|
E|-------------------------------------------------------------|

Outro Part 1

G|---------------------------------|
D|---------------------------------|
A|--4-6---2-4-6------4-6---2-4-1---|x2 (Let Each Note Ring)
E|2---------------2----------------|

Outro Part 2

G|---------------------------------|
D|---------------------------------|
A|--4-6---2-4-6------4-6---2-4-1---|x2
E|2---------------2----------------|
(Strum All Notes Around 6 to 8 times, end on 1 and let ring 2nd time)

Order-
Intro
Verse Part one
Verse Part two
Chorus
Verse Part one
Verse Part two
Chorus
Outro Part 1
Outro Part 2



Band- Rise Against
Song- Anywhere But Here

Drop D Version (GDAD)
-------------------------------------------------------------

Intro
G|----------------------------------------------------------|
D|----------------------------------------------------------|
A|-----------------------------6666-6-8-6-5-6---------------|
D|-1111-1-1111-1-6666-6-6666-6----------------6666-6-6666-6-|

G|-------------------------------------------------------------|
D|-------------------------------------------------------------|
A|-----------------------------1-1-1-1-1-1-1-1-1-1-1-1-1-1-1-1-|
D|-1111-1-1111-1-6666-6-6666-6---------------------------------|

Verse
G|-----------------------------------------------------------------|
D|-----------------------------------------------------------------|
A|-333-333-333-333---------------------------------111-111-111-111-|
D|-----------------666-666-666-666-111-111-111-111-----------------|

G|-----------------------------------------------------------------|
D|-----------------------------------------------------------------|
A|-333-333-333-333---------------------------------111-111-111-111-|
D|-----------------666-666-666-666-111-111-111-111-----------------|

G|-----------------------------------------------------------------|
D|-------------3u5h666-666-666-8d6p555-555-555-6p5-----------------|
A|-333-333-333-------------------------------------888-888-888d6p5-|
D|-----------------------------------------------------------------|

G|-----------------------------------------------------------------|
D|-----------------------------------------------------------------|
A|-333-333-333-333-----------------666-666-666-666-111-111-111-111-|
D|-----------------666-666-666-666---------------------------------|

Pre-Chorus
G|---------------------------------|
D|---------------------------------|
A|-3m------------------------------|
D|---------8~------6m------8~------|

Chorus
G|----------------------------------------------------------|
D|----------------------------------------------------------|
A|-----------------------------66-666-8-6-5-6---------------|
D|-11-111-11-111-66-666-66-666----------------66-666-66-666-|

G|-------------------------------------------------------------|
D|-------------------------------------------------------------|
A|-----------------------------1-1-1-1-1-1-1-1-1-1-1-1-1-1-1-1-|
D|-11-111-11-111-66-666-66-666---------------------------------|

Verse
G|-----------------------------------------------------------------|
D|-----------------------------------------------------------------|
A|-333-333-333-333---------------------------------111-111-111-111-|
D|-----------------666-666-666-666-111-111-111-111-----------------|

G|-----------------------------------------------------------------|
D|-----------------------------------------------------------------|
A|-333-333-333-333---------------------------------111-111-111-111-|
D|-----------------666-666-666-666-111-111-111-111-----------------|

G|-----------------------------------------------------------------|
D|-------------3u5h666-666-666-8d6p555-555-555-6p5-----------------|
A|-333-333-333-------------------------------------888-888-888d6p5-|
D|-----------------------------------------------------------------|

G|-----------------------------------------------------------------|
D|-----------------------------------------------------------------|
A|-333-333-333-333-----------------666-666-666-666-111-111-111-111-|
D|-----------------666-666-666-666---------------------------------|

Pre-Chorus
G|---------------------------------|
D|---------------------------------|
A|-3m------------------------------|
D|---------8~------6m------8~------|

Chorus
G|----------------------------------------------------------|
D|----------------------------------------------------------|
A|-----------------------------66-666-8-6-5-6---------------|
D|-11-111-11-111-66-666-66-666----------------66-666-66-666-|

G|-------------------------------------------------------------|
D|-------------------------------------------------------------|
A|-----------------------------1-1-1-1-1-1-1-1-1-1-1-1-1-1-1-1-|
D|-11-111-11-111-66-666-66-666---------------------------------|

Breakdown
G|---------------------------------------------------------------------|
D|---------------------------------------------------------------------|
A|-3~---3h6-1~----------------1~-----3~---3h6-1~----------------1~-----|
D|---------------6p5-6~---5h6----------------------6p5-6~---5h6--------|

G|--------------------------------------------------------------------------------|
D|------3u5h6~---8d6p5~---6p5---------------3u5h6~---8d6p5~---6p5-8-8-8-8-8-8-8-8-|
A|-3~-------------------------8~---6p5-3~-----------------------------------------|
D|--------------------------------------------------------------------------------|

Chorus
G|----------------------------------------------------------|
D|----------------------------------------------------------|
A|-----------------------------66-666-8-6-5-6---------------|
D|-11-111-11-111-66-666-66-666----------------66-666-66-666-|

G|---------------------------------------------------------------------------------------------|
D|---------------------------------------------------------------------------------------------|
A|-----------------------------1-1-1-1-1-1-1-1-1-1-1-1-1-1-1-1---------------------------------|
D|-11-111-11-111-66-666-66-666---------------------------------6-6-6-6-6-6-6-6-6-6-6-6-6-6-6-6-|

Outro
G|--------------------------------------------------------------------------|
D|-5~-----6~-----5~------------5~-----6~-----5~-----8-8-8-8-8-8-8-8---------|
A|----------------------8~------------------------------------------6~------|
D|--------------------------------------------------------------------------|


-------------------------------------------------------------


Eb Version (GDAEb)
-------------------------------------------------------------

Intro
G|----------------------------------------------------------|
D|----------------------------------------------------------|
A|-----------------------------6666-6-8-6-5-6---------------|
D|-0000-0-0000-0-5555-5-5555-5----------------5555-5-5555-5-|

G|-------------------------------------------------------------|
D|-------------------------------------------------------------|
A|-----------------------------1-1-1-1-1-1-1-1-1-1-1-1-1-1-1-1-|
D|-0000-0-0000-0-5555-5-5555-5---------------------------------|

Verse
G|-----------------------------------------------------------------|
D|-----------------------------------------------------------------|
A|-333-333-333-333---------------------------------111-111-111-111-|
D|-----------------555-555-555-555-000-000-000-000-----------------|

G|-----------------------------------------------------------------|
D|-----------------------------------------------------------------|
A|-333-333-333-333---------------------------------111-111-111-111-|
D|-----------------555-555-555-555-000-000-000-000-----------------|

G|-----------------------------------------------------------------|
D|-------------3u5h666-666-666-8d6p555-555-555-6p5-----------------|
A|-333-333-333-------------------------------------888-888-888d6p5-|
D|-----------------------------------------------------------------|

G|-----------------------------------------------------------------|
D|-----------------------------------------------------------------|
A|-333-333-333-333-----------------666-666-666-666-111-111-111-111-|
D|-----------------555-555-555-555---------------------------------|

Pre-Chorus
G|---------------------------------|
D|---------------------------------|
A|-3m------------------------------|
D|---------7~------5m------7~------|

Chorus
G|----------------------------------------------------------|
D|----------------------------------------------------------|
A|-----------------------------66-666-8-6-5-6---------------|
D|-00-000-00-000-55-555-55-555----------------55-555-55-555-|

G|-------------------------------------------------------------|
D|-------------------------------------------------------------|
A|-----------------------------1-1-1-1-1-1-1-1-1-1-1-1-1-1-1-1-|
D|-00-000-00-000-55-555-55-555---------------------------------|

Verse
G|-----------------------------------------------------------------|
D|-----------------------------------------------------------------|
A|-333-333-333-333---------------------------------111-111-111-111-|
D|-----------------555-555-555-555-000-000-000-000-----------------|

G|-----------------------------------------------------------------|
D|-----------------------------------------------------------------|
A|-333-333-333-333---------------------------------111-111-111-111-|
D|-----------------555-555-555-555-000-000-000-000-----------------|

G|-----------------------------------------------------------------|
D|-------------3u5h666-666-666-8d6p555-555-555-6p5-----------------|
A|-333-333-333-------------------------------------888-888-888d6p5-|
D|-----------------------------------------------------------------|

G|-----------------------------------------------------------------|
D|-----------------------------------------------------------------|
A|-333-333-333-333-----------------666-666-666-666-111-111-111-111-|
D|-----------------555-555-555-555---------------------------------|

Pre-Chorus
G|---------------------------------|
D|---------------------------------|
A|-3m------------------------------|
D|---------7~------5m------7~------|

Chorus
G|----------------------------------------------------------|
D|----------------------------------------------------------|
A|-----------------------------66-666-8-6-5-6---------------|
D|-00-000-00-000-55-555-55-555----------------55-555-55-555-|

G|-------------------------------------------------------------|
D|-------------------------------------------------------------|
A|-----------------------------1-1-1-1-1-1-1-1-1-1-1-1-1-1-1-1-|
D|-00-000-00-000-55-555-55-555---------------------------------|

Breakdown
G|---------------------------------------------------------------------|
D|---------------------------------------------------------------------|
A|-3~---3h6-1~----------------1~-----3~---3h6-1~----------------1~-----|
D|---------------5p4-5~---4h5----------------------5p4-5~---4h5--------|

G|--------------------------------------------------------------------------------|
D|------3u5h6~---8d6p5~---6p5---------------3u5h6~---8d6p5~---6p5-8-8-8-8-8-8-8-8-|
A|-3~-------------------------8~---6p5-3~-----------------------------------------|
D|--------------------------------------------------------------------------------|

Chorus
G|----------------------------------------------------------|
D|----------------------------------------------------------|
A|-----------------------------66-666-8-6-5-6---------------|
D|-00-000-00-000-55-555-55-555----------------55-555-55-555-|

G|---------------------------------------------------------------------------------------------|
D|---------------------------------------------------------------------------------------------|
A|-----------------------------1-1-1-1-1-1-1-1-1-1-1-1-1-1-1-1---------------------------------|
D|-00-000-00-000-55-555-55-555---------------------------------5-5-5-5-5-5-5-5-5-5-5-5-5-5-5-5-|

Outro
G|--------------------------------------------------------------------------|
D|-5~-----6~-----5~------------5~-----6~-----5~-----8-8-8-8-8-8-8-8---------|
A|----------------------8~------------------------------------------6~------|
D|--------------------------------------------------------------------------|

Ah, another great song from the greatest band in the world! Have fun!

u - Slide up
d - Slide down
~ - Let note ring
m - Play note, then mute
h - Hammer off
p - Pull on

Give it all

This is 100%
Test it, Like it!!!

Intro without Bass
Tuning: standard

Verse 1st Time 2x
G|-----------------------------------|
D|-----------------------------------|
A|---------------555---------555-777-|
E|-22--22--22--------22--22----------|

Verse 2nd Time 2x
G|-----------------------------------|
D|-----------------------------------|
A|--------------555----------555-777-|
E|-220022002200-----22002200---------|

Chorus 2x
G|--------------------------------------------|
D|---------------667799----776677-------------|
A|-00004455667777------9999------5555775544---|
E|--------------------------------------------|

Verse 1st Time
G|-----------------------------------|
D|-----------------------------------|
A|---------------555---------555-777-|
E|-22--22--22--------22--22----------|

Verse 2nd Time
G|-----------------------------------|
D|-----------------------------------|
A|--------------555----------555-777-|
E|-220022002200-----22002200---------|

Chorus 2x
G|----------------------------------------------|
D|---------------667799----776677---------------|
A|-00004455667777------9999------55557755440----|
E|----------------------------------------------|

Breakdown
G|------|
D|------|
A|------|
E|-5-4--|

Bridge 1st and 2nd Time
G|------------------------------------|
D|------------------------------------|
A|---------55555555-------------------|
E|-2222222----------0000000-5~-4~-----|

Bridge 3rd Time
G|------------------------------------|
D|------------------------------------|
A|---------555555555------------------|
E|-2222222-----------0000000-555-444--|

Bridge 3rd Time
G|------------------------------------|
D|------------------------------------|
A|---------555555555------------------|
E|-2222222-----------0000000-555-444--|

Bridge 4th Time
G|------------------------------------|
D|------------------------------------|
A|---------555555555-7777777----------|
E|-2222222----------------------------|

Chorus 2x
G|----------------------------------------------|
D|---------------667799----776677---------------|
A|-00004455667777------9999------55557755440----|
E|----------------------------------------------|

Outro (Last chorus)
G|---------------------------------------|
D|---------------------------------------|
A|-0000000-7777777---------5555555-------|
E|-----------------99999999--------------|

Ends on
G|---|
D|---|
A|-0-|
E|---|

Band- Rise Against
Song- Tip The Scales

Tune down a half step

Intro few bars guitar
bass comes in with this (its same riff as Chorus)
|------------------|
|------------------|
|---5-2>-5-3>-2-5>-| 4x
|-0>---------------|

Verse
|-------------------------|-----------------------------------------------------|
|-------------------------|-----------------------------------------------------|
|----5>-2>-3>----5>-2>-5>-|---------------3>2-3>2--5>--------------3>2-3>-2-5>--|
|-0>----------0>----------|0-0-----0-0----------------0-0----0-0----------------|

Chorus
|------------------|
|------------------|
|---5-2>-5-3>-2-5>-| 4x
|-0>---------------|

Play:
Verse
Chorus 4x

Bass Solo (not 100% but sounds pretty good)
|-------------------------------------|
|-------------------------------------|
|----------2----------2-333-3-2-55555-| 6x
|-00-2-3-5---33-00-33-----------------|
if you played it 6 time strum the 5 to get into the guitar riff

let Eb-0- ring during the guitar is playing the intro again

Play
2nd Part of Verse 2x

end on Eb-0-


Song: Dancing For Rain
Artist: Rise Against
Tuning: Drop D (Low to high: DADG) (Best with capo on first fret)

Acoustic Intro for guitar then...

Intro/Verse (0:13)                                   Fill A (0:37)
|-----------|-----------|-----------|-----------|    |-----------------|
|-----------|-----------|-----------|-----------|    |-----------------|
|-----------|-4-4-4-4-4-|-2-2-2-2-2-|-4-4-4-4-4-|    |-4-4-4-4-4-4-(4)-|
|-1-1-3-3-4-|-----------|-----------|-----------| 8x |-----------------|

Chorus (0:40)
|------------------|-----------------|-----------------|-----------------|
|*-----------------|-----------------|-----------------|-----------------|
|*-----------------|-----------------|-2-2-2-2-2-2-2-2-|-4-4-4-4-4-4-4-4-|
|--1-1-1-1-1-1-1-1-|-4-4-4-4-4-4-4-4-|-----------------|-----------------|

|-----------------|-----------------|-----------------|--------------|
|-----------------|-----------------|-----------------|-------------*|
|-----------------|-----------------|-2-2-2-2-2-2-2-2-|-2---4-4-4-4-*|
|-1-1-1-1-1-1-1-1-|-4-4-4-4-4-4-4-4-|-----------------|---4----------| 2x

Verse (1:05) 8x
Fill A (1:28) 1x
Chorus 2x (1:31)

Bridge (1:56)
|-------------|--------------|------------|------------|
|-------------|--------------|------------|------------|
|-------------|--------------|------------|------------|
|-(1)---------|--------------|------------|------------|

(2:20)
|------------|------------|------------|------------|
|------------|------------|------------|------------|
|------------|-1-11-1-111-|-4-44-4-444-|-2-22-2-222-|
|-1-11-1-111-|------------|------------|------------| 2x

(2:44)
|----------------------|---------------------|
|*---------------------|---------------------|
|*---------------------|-1-1-1-1-1-1-1-1-1-1-|
|--1-1-1-1-1-1-1-1-1-1-|---------------------|

|---------------------|---------------------|
|---------------------|---------------------|
|-4-4-4-4-4-4-4-4-4-4-|-2-2-2-2-2-2-2-2-2-2-|
|---------------------|---------------------|

|---------------------|---------------------|
|---------------------|---------------------|
|---------------------|-1-1-1-1-1-1-1-1-1-1-|
|-1-1-1-1-1-1-1-1-1-1-|---------------------|

|---------------------|----------------------|
|---------------------|---------------------*|
|-4-4-4-4-4-4-4-4-4-4-|-4-4-4-4-4-4-4-4-4-4-*|
|---------------------|----------------------| 1x

Chorus (3:08) 2x

Outro (3:33)
|-----------------|-------------|
|-----------------|-------------|
|-2-2-2-2-2-2-2-2-|-2---4-4-4-4-|
|-----------------|---4---------| 4x

End on
|------------------------|
|------------------------|
|------------------------|
|-(1)--------------------| 1x

End

Have fun  :)

Key

( ) - let note ring
|----|
|*--*| - repeat bar(s)
|*--*|
|----|


Swing life away

There really is no bass guitar in this song but i made a riff that fits perfect with it.
follows the bass drum in the song.

Riff 1.

G:------------------------------------------]-----------------------|
D:--------------------------(play 3 times)--]--0~~~~~0~~~~0~~~~~0-x-|
A:-------------3-xxx-3-xxx------------------]-----------------------|
E:-0-xxx-3-xxx------------------------------]-----------------------|

Riff 2. (hold all notes)

G:---------------------------------------------------|
D:------------------------0--------------------------|
A:---------------3-----------------------------------|
E:-0------3------------------------------------------|

Riff 3. (hold all notes)

G:-----------------------------------------------------------|
D:-----------------------------------------------------------|
A:---------3---3-------3---3-------3---3----3---3---3---3----|
E:-0---3---------0---3-------0---3-------0-------------------|


*Starts with bass drum on first chorus*

Riff 2 X 4
Riff 1 X 2
Riff 2 X 4
(guitar bridge)
Riff 2 X 4
Riff 3 X 1


Rumors of my demise have been greatly....

Drop D Tuning (DADG)

Intro - 0:05

G|-------------------------------------------------------------------------|
D|-------------------------------------------------------------------------|
A|-------------------------------------------------------------------------|
D|-1010p8h10p8-3-33-3/6-66-6/8-88-8----------------------------------------| X3
    (those are tens NOT ones and zeros)

Verse - 0:22 (Same as intro but just slightly palm muted)

Pre-Chorus - 0:40

G|--------------------------------------------------------------------------|
D|--------------------------------------------------------------------------|
A|--------------------------------------------------------------------------|
D|-6-66-6-66-3-33-33--------------------------------------------------------| X3

G|--------------------------------------------------------------------------|
D|--------------------------------------------------------------------------|
A|--------------------------------------------------------------------------|
D|-6-66-6-66-8-88-8-88------------------------------------------------------| X1

Chorus - 0:58

G|--------------------------------------------------------------------------|
D|----------------------------------------3565------------------------------|
A|-----------------------------------3h5--------7-4-------------------------|
D|-1-1-11-1-1-111-8-8-88-8-88-8-888-------------------6-6-666-6-6-666-------| x2

Pre-Verse - 1:14

(Same as intro and verse.Just pause while the guitar plays a measure then come in.) X3

Verse - 1:31 (x4)

Pre-Chorus - (same as at the top)

Chorus - 2:07 (same as first chorus)

G|-------------------------------------------------------------------------|
D|-------------------------------------------------------------------------|
A|-------------------------------------------------------------------------|
D|-3-3----PAUSE------------------------------------------------------------|

Pause - 2:25

Bridge - 2:33

G|-------------------------------------------------------------------------|
D|-------------------------------------------------------------------------|
A|-------------------------------------------------------------------------|
D|-3-3-----3-0-0-3-----3-3-11-11--------11-11-13-13-13---------------------| X2
                            (THOSE ARE ELEVENS AND THIRTEENS)

G|--------------------------------------------------------------------------|
D|--------------------------------------------------------------------------|
A|--------------------------------------------------------------------------|
D|-3-3-333-3-33-333-1-1-333-1-1-33/11-11-111111-11-11-111111/13-13-131313---|X2
                                        (THOSE ARE ELEVENS AND THIRTEENS)

Pre-Chorus - 3:07 (same as top)

Chorus - 3:25 (same)

hold last note (on the chorus) till the end.


Thats all.ENJOY.
Suggest correction
Give kudos to tab author, rate the tab!
1 2 3 4 5
comments
print report bad tab
1 comment total.
0 reply
cooper665 40 Nov 08, 2008 10:27 AM

well that is very well copied and pasted. by the way youve coppied the wrong dancing for rain tab the other one on there is better

guest
You may want to rate the tab now too:
select rating
Wanna post a correction for this tab? Suggest correction