Oops, an error
Loading. Please wait.

Six Ways Till Sunday Bass Tab

version 1
version 1

Whole song

Interactive

1,636 views 1 this week
2 commentsread comments
1 2 3 4 5
x 3
add to favorites
launch autoscroll
font size
0
reset
guitar tuner
Autoscroll
slow
fast
+/-
esc
set tempo
stop
Help us to improve Ultimate-Guitar.com Take our survey!
×
Author
Tabbed By: Trevor (HappyDrugs)
Email: plain.white.ts__@hotmail.com
Prop's to Telenofunken for pointing out my previous error when it came to the Chorus


Intro 

G|---------------| 
D|---------------| 
A|-------7-------| 
E|-0~------7-----|


Verse
 
G|-----------------------------------------| 
D|-----------------------------------------| 
A|-----------22222222----------------------| 
E|-00000000------------055555555--77777777-| x2


Chorus
                     
G|----------------------------------|                     
D|-------------------------999999---| 
A|-444--------------777777----------| 
E|------777--555555-----------------| 
  
G|-666--888--999999-99999(11)-888888-| 
D|-----------------------------------| 
A|-----------------------------------| 
E|-----------------------------------|

G|----------------------------------|                     
D|----------------------------------| 
A|-444--------------777777----------| 
E|------777--555555--------777777---| 
  
G|----------------------------------| 
D|----------------------------------| 
A|-444--------------777777-----66---| 
E|------777--555555--------7777-----|


Verse
 
G|-----------------------------------------| 
D|-----------------------------------------| 
A|-----------22222222----------------------| 
E|-00000000------------055555555--77777777-| x3


Chorus
                     
G|----------------------------------|                     
D|-------------------------999999---| 
A|-444--------------777777----------| 
E|------777--555555-----------------| 
  
G|-666--888--999999-99999(11)-888888-| 
D|-----------------------------------| 
A|-----------------------------------| 
E|-----------------------------------|

G|----------------------------------|                     
D|----------------------------------| 
A|-444--------------777777----------| 
E|------777--555555--------777777---| 
  
G|----------------------------------| 
D|----------------------------------| 
A|-444--------------777777-----66---| 
E|------777--555555--------7777-----|


Intro 
 
G|---------------| 
D|---------------| 
A|-------7-------| 
E|-0~------7-----|


Outro  
 
G|---------------------------| 
D|---------------------------| 
A|---------------------------| 
E|-000000000000--------------|

        -Break-
 
G|---------------------------| 
D|---------------------------| 
A|-------22222---------------| 
E|-00000-------055555--77777-|x6
Suggest correction
Give kudos to tab author, rate the tab!
1 2 3 4 5
comments
print report bad tab
2 comments total.
+1 reply
chrisjenks 2,712 Jul 08, 2008 05:44 AM

i love this song! i'm not sure if the tab is perfect but it's pretty damn close. good job!

+1 reply
telenofunken 101 Jan 19, 2015 12:04 PM

The chorus is like this, use the octaves
Chorus

G|----------------------------------|
D|-------------------------999999---|
A|-444--------------777777----------|
E|------777--555555-----------------|

G|-666--888--999999-99999(11)-888888-|
D|-----------------------------------|
A|-----------------------------------|
E|-----------------------------------|

G|----------------------------------|
D|----------------------------------|
A|-444--------------777777----------|
E|------777--555555--------777777---|

G|----------------------------------|
D|----------------------------------|
A|-444--------------777777-----66---|
E|------777--555555--------7777-----|

guest
You may want to rate the tab now too:
select rating
Wanna post a correction for this tab? Suggest correction