Oops, an error
Loading. Please wait.

Six Ways Till Sunday Bass Tab

version 2
version 2

Whole song

Interactive

910 views 1 this week
2 commentsread comments
1 2 3 4 5
please rate
add to favorites
launch autoscroll
font size
0
reset
guitar tuner
Autoscroll
slow
fast
+/-
esc
set tempo
stop
Help us to improve Ultimate-Guitar.com Take our survey!
×
Contributor
Difficulty
novice
Song: Six Ways 'Til Sunday                               
Album: The Unraveling
Band: Rise Against
Bassist: Joe Principe

INTRO

G|-----------------|-----------------||
D|-----------------|-----------------||
A|-----------------|---------7-------||
E|-0---------------|-------------7---||
   1 + 2 + 3 + 4 +   1 + 2 + 3 + 4 +  

VERSE

G|-----------------|-----------------|-----------------|-----------------|
D|-----------------|-----------------|-----------------|-----------------|
A|-----------------|-----------------|-2-2---2-2-2-2-2-|-2-2---2---------|
E|-0-0---0-0-0-0-0-|-0-0---0-0-0-0-0-|-----------------|-----------4-4---|
   1 + 2 + 3 + 4 +   1 + 2 + 3 + 4 +   1 + 2 + 3 + 4 +   1 + 2 + 3 + 4 +  

G|-----------------|-----------------|-----------------|-----------------|
D|-----------------|-----------------|-----------------|-----------------|
A|-0-0---0-0-0-0-0-|-0-0---0-0-0-0-0-|-2-2---2-2-2-2-2-|-2-2---2-2-2-2-2-|
E|-----------------|-----------------|-----------------|-----------------|
   1 + 2 + 3 + 4 +   1 + 2 + 3 + 4 +   1 + 2 + 3 + 4 +   1 + 2 + 3 + 4 +  

G|-----------------|-----------------|-----------------|-----------------|
D|-----------------|-----------------|-----------------|-----------------|
A|-----------------|-----------------|-2-2---2-2-2-2-2-|-2-2---2---------|
E|-0-0---0-0-0-0-0-|-0-0---0-0-0-0-0-|-----------------|-----------4-4---|
   1 + 2 + 3 + 4 +   1 + 2 + 3 + 4 +   1 + 2 + 3 + 4 +   1 + 2 + 3 + 4 +  

G|-----------------|-----------------|-----------------|-----------------||
D|-----------------|-----------------|-----------------|-----------------||
A|-0-0---0-0-0-0-0-|-0-0---0-0-0-0-0-|-2-2---2-2-2-2-2-|-2-2---2-2-2-2-2-||
E|-----------------|-----------------|-----------------|-----------------||
   1 + 2 + 3 + 4 +   1 + 2 + 3 + 4 +   1 + 2 + 3 + 4 +   1 + 2 + 3 + 4 +  

CHORUS

G|-----------------|-----------------|-----------------|-----------------|
D|-----------------|-----------------|-----------------|-9-9---9-9-9-9-9-|
A|-4-4---4-2-2---2-|-0-0---0-0-0-0-0-|-7-7---7-7-7-7-7-|-----------------|
E|-----------------|-----------------|-----------------|-----------------|
   1 + 2 + 3 + 4 +   1 + 2 + 3 + 4 +   1 + 2 + 3 + 4 +   1 + 2 + 3 + 4 +  

G|-----------------------|------------------------|------------------------|------------------------|
D|11-11---11-13-13----13-|-14-14----14-14-14-14-14|-14-14----14-14-14-16---|-13-13----13-13-13----13|
A|-----------------------|------------------------|------------------------|------------------------|
E|-----------------------|------------------------|------------------------|------------------------|
   1  +  2 +  3  +  4  +    1  +  2  +  3  +  4  +   1  +  2  +  3  +  4  +   1  +  2  +  3  +  4  + 

G|-----------------|-----------------|-----------------|-----------------|
D|-----------------|-----------------|-----------------|-----------------|
A|-4-4---4-2-2---2-|-0-0---0-0-0-0-0-|-7-7---7-7-7-7-7-|-2-2---2-2-2-2-2-|
E|-----------------|-----------------|-----------------|-----------------|
   1 + 2 + 3 + 4 +   1 + 2 + 3 + 4 +   1 + 2 + 3 + 4 +   1 + 2 + 3 + 4 +

G|-----------------|-----------------|-----------------|-----------------||
D|-----------------|-----------------|-----------------|-----------------||
A|-4-4---4-2-2---2-|-0-0---0-0-0-0-0-|-7-7---7-7-7-7-7-|-2-2---2-2-2-6-6-||
E|-----------------|-----------------|-----------------|-----------------||
   1 + 2 + 3 + 4 +   1 + 2 + 3 + 4 +   1 + 2 + 3 + 4 +   1 + 2 + 3 + 4 +  
  
VERSE

G|-----------------|-----------------|-----------------|-----------------|
D|-----------------|-----------------|-----------------|-----------------|
A|-----------------|-----------------|-2-2---2-2-2-2-2-|-2-2---2---------|
E|-0-0---0-0-0-0-0-|-0-0---0-0-0-0-0-|-----------------|-----------4-4---|
   1 + 2 + 3 + 4 +   1 + 2 + 3 + 4 +   1 + 2 + 3 + 4 +   1 + 2 + 3 + 4 +  

G|-----------------|-----------------|-----------------|-----------------|
D|-----------------|-----------------|-----------------|-----------------|
A|-0-0---0-0-0-0-0-|-0-0---0-0-0-0-0-|-2-2---2-2-2-2-2-|-2-2---2-2-2-2-2-|
E|-----------------|-----------------|-----------------|-----------------|
   1 + 2 + 3 + 4 +   1 + 2 + 3 + 4 +   1 + 2 + 3 + 4 +   1 + 2 + 3 + 4 +  

G|-----------------|-----------------|-----------------|-----------------|
D|-----------------|-----------------|-----------------|-----------------|
A|-----------------|-----------------|-2-2---2-2-2-2-2-|-2-2---2---------|
E|-0-0---0-0-0-0-0-|-0-0---0-0-0-0-0-|-----------------|-----------4-4---|
   1 + 2 + 3 + 4 +   1 + 2 + 3 + 4 +   1 + 2 + 3 + 4 +   1 + 2 + 3 + 4 +  

G|-----------------|-----------------|-----------------|-----------------||
D|-----------------|-----------------|-----------------|-----------------||
A|-0-0---0-0-0-0-0-|-0-0---0-0-0-0-0-|-2-2---2-2-2-2-2-|-2-2---2-2-2-2-2-||
E|-----------------|-----------------|-----------------|-----------------||
   1 + 2 + 3 + 4 +   1 + 2 + 3 + 4 +   1 + 2 + 3 + 4 +   1 + 2 + 3 + 4 +  

CHORUS

G|-----------------|-----------------|-----------------|-----------------|
D|-----------------|-----------------|-----------------|-9-9---9-9-9-9-9-|
A|-4-4---4-2-2---2-|-0-0---0-0-0-0-0-|-7-7---7-7-7-7-7-|-----------------|
E|-----------------|-----------------|-----------------|-----------------|
   1 + 2 + 3 + 4 +   1 + 2 + 3 + 4 +   1 + 2 + 3 + 4 +   1 + 2 + 3 + 4 +  

G|-----------------------|------------------------|------------------------|------------------------|
D|11-11---11-13-13----13-|-14-14----14-14-14-14-14|-14-14----14-14-14-16---|-13-13----13-13-13----13|
A|-----------------------|------------------------|------------------------|------------------------|
E|-----------------------|------------------------|------------------------|------------------------|
   1  +  2 +  3  +  4  +    1  +  2  +  3  +  4  +   1  +  2  +  3  +  4  +   1  +  2  +  3  +  4  + 

G|-----------------|-----------------|-----------------|-----------------|
D|-----------------|-----------------|-----------------|-----------------|
A|-4-4---4-2-2---2-|-0-0---0-0-0-0-0-|-7-7---7-7-7-7-7-|-2-2---2-2-2-2-2-|
E|-----------------|-----------------|-----------------|-----------------|
   1 + 2 + 3 + 4 +   1 + 2 + 3 + 4 +   1 + 2 + 3 + 4 +   1 + 2 + 3 + 4 +

G|-----------------|-----------------|-----------------|-----------------||
D|-----------------|-----------------|-----------------|-----------------||
A|-4-4---4-2-2---2-|-0-0---0-0-0-0-0-|-7-7---7-7-7-7-7-|-2-2---2-2-2-6-6-||
E|-----------------|-----------------|-----------------|-----------------||
   1 + 2 + 3 + 4 +   1 + 2 + 3 + 4 +   1 + 2 + 3 + 4 +   1 + 2 + 3 + 4 +  

INTERLUDE

G|-----------------|-----------------|-----------------|-----------------||
D|-----------------|-----------------|-----------------|-----------------||
A|-----------------|---------7-------|-----------------|-----------------||
E|-0---------------|-------------7---|-0-0-0-0-0-0-0-0-|-0-0-0-0-0-0-0-0-||
   1 + 2 + 3 + 4 +   1 + 2 + 3 + 4 +   1 + 2 + 3 + 4 +   1 + 2 + 3 + 4 + 

BRIDGE

G|-----------------|-----------------|-----------------|-----------------|
D|-----------------|-----------------|-----------------|-----------------|
A|-----------------|-----------------|-----------------|-----------------|
E|-0---------------|-----------------|-----------------|-----------------|
   1 + 2 + 3 + 4 +   1 + 2 + 3 + 4 +   1 + 2 + 3 + 4 +   1 + 2 + 3 + 4 + 

G|-----------------|-----------------|-----------------|-----------------|
D|-----------------|-----------------|-----------------|-----------------|
A|-----------------|-----------------|-----------------|-----------------|
E|-----------------|-----------------|-----------------|-----------------|
   1 + 2 + 3 + 4 +   1 + 2 + 3 + 4 +   1 + 2 + 3 + 4 +   1 + 2 + 3 + 4 + 

G|-----------------|-----------------|-----------------|-----------------|
D|-----------------|-----------------|-----------------|-----------------|
A|-----------------|-2-2-2-2-2-2-7---|-0-0-0-0-0-0-0-0-|-7-7-7-7-7-7-7---|
E|-0-0-0-0-0-0-0-0-|-----------------|-----------------|-----------------|
   1 + 2 + 3 + 4 +   1 + 2 + 3 + 4 +   1 + 2 + 3 + 4 +   1 + 2 + 3 + 4 + 

G|-----------------|-----------------|-----------------|-----------------|
D|-----------------|-----------------|-----------------|-----------------|
A|-----------------|-2-2-2-2-2-2-7---|-0-0-0-0-0-0-0-0-|-7-7-7-7-7-7-7---|
E|-0-0-0-0-0-0-0-0-|-----------------|-----------------|-----------------|
   1 + 2 + 3 + 4 +   1 + 2 + 3 + 4 +   1 + 2 + 3 + 4 +   1 + 2 + 3 + 4 + 

G|-----------------|-----------------|-----------------|-----------------|
D|-----------------|-----------------|-----------------|-----------------|
A|-----------------|-2-2-2-2-2-2-7---|-0-0-0-0-0-0-0-0-|-7-7-7-7-7-7-7---|
E|-0-0-0-0-0-0-0-0-|-----------------|-----------------|-----------------|
   1 + 2 + 3 + 4 +   1 + 2 + 3 + 4 +   1 + 2 + 3 + 4 +   1 + 2 + 3 + 4 + 

G|-----------------|-----------------|-----------------|-----------------|
D|-----------------|-----------------|-----------------|-----------------|
A|-----------------|-2-2-2-2-2-2-7---|-0-0-0-0-0-0-0-0-|-7-7-7-7-7-7-7---|
E|-0-0-0-0-0-0-0-0-|-----------------|-----------------|-----------------|
   1 + 2 + 3 + 4 +   1 + 2 + 3 + 4 +   1 + 2 + 3 + 4 +   1 + 2 + 3 + 4 + 

G|-----------------|-----------------|-----------------|-----------------|
D|-----------------|-----------------|-----------------|-----------------|
A|-----------------|-2-2-2-2-2-2-7---|-0-0-0-0-0-0-0-0-|-7-7-7-7-7-7-7---|
E|-0-0-0-0-0-0-0-0-|-----------------|-----------------|-----------------|
   1 + 2 + 3 + 4 +   1 + 2 + 3 + 4 +   1 + 2 + 3 + 4 +   1 + 2 + 3 + 4 + 

G|-----------------|-----------------|-----------------|-----------------|
D|-----------------|-----------------|-----------------|-----------------|
A|-----------------|-2-2-2-2-2-2-7---|-0-0-0-0-0-0-0-0-|-7-7-7-7-7-7-7---|
E|-0-0-0-0-0-0-0-0-|-----------------|-----------------|-----------------|
   1 + 2 + 3 + 4 +   1 + 2 + 3 + 4 +   1 + 2 + 3 + 4 +   1 + 2 + 3 + 4 + 

G|-----------------|-----------------|-----------------|-----------------|
D|-----------------|-----------------|-----------------|-----------------|
A|-----------------|-2-2-2-2-2-2-7---|-0-0-0-0-0-0-0-0-|-7-7-7-7-7-7-7---|
E|-0-0-0-0-0-0-0-0-|-----------------|-----------------|-----------------|
   1 + 2 + 3 + 4 +   1 + 2 + 3 + 4 +   1 + 2 + 3 + 4 +   1 + 2 + 3 + 4 + 

G|-----------------|-----------------|-----------------|-----------------|
D|-----------------|-----------------|-----------------|-----------------|
A|-----------------|-2-2-2-2-2-2-7---|-0-0-0-0-0-0-0-0-|-7-7-7-7-7-7-7---|
E|-0-0-0-0-0-0-0-0-|-----------------|-----------------|-----------------|
   1 + 2 + 3 + 4 +   1 + 2 + 3 + 4 +   1 + 2 + 3 + 4 +   1 + 2 + 3 + 4 + 

START FADE OUT TO END--->>>

G|-----------------|-----------------|-----------------|-----------------|
D|-----------------|-----------------|-----------------|-----------------|
A|-----------------|-2-2-2-2-2-2-7---|-0-0-0-0-0-0-0-0-|-7-7-7-7-7-7-7---|
E|-0-0-0-0-0-0-0-0-|-----------------|-----------------|-----------------|
   1 + 2 + 3 + 4 +   1 + 2 + 3 + 4 +   1 + 2 + 3 + 4 +   1 + 2 + 3 + 4 + 

G|-----------------|-----------------|-----------------|-----------------|
D|-----------------|-----------------|-----------------|-----------------|
A|-----------------|-2-2-2-2-2-2-7---|-0-0-0-0-0-0-0-0-|-7-7-7-7-7-7-7---|
E|-0-0-0-0-0-0-0-0-|-----------------|-----------------|-----------------|
   1 + 2 + 3 + 4 +   1 + 2 + 3 + 4 +   1 + 2 + 3 + 4 +   1 + 2 + 3 + 4 + 

G|-----------------|-----------------|-----------------|-----------------|
D|-----------------|-----------------|-----------------|-----------------|
A|-----------------|-2-2-2-2-2-2-7---|-0-0-0-0-0-0-0-0-|-7-7-7-7-7-7-7---|
E|-0-0-0-0-0-0-0-0-|-----------------|-----------------|-----------------|
   1 + 2 + 3 + 4 +   1 + 2 + 3 + 4 +   1 + 2 + 3 + 4 +   1 + 2 + 3 + 4 + 

G|-----------------|-----------------|-----------------|-----------------||
D|-----------------|-----------------|-----------------|-----------------||
A|-----------------|-2-2-2-2-2-2-7---|-0-0-0-0-0-0-0-0-|-7-7-7-7-7-7-7---||
E|-0-0-0-0-0-0-0-0-|-----------------|-----------------|-----------------||
   1 + 2 + 3 + 4 +   1 + 2 + 3 + 4 +   1 + 2 + 3 + 4 +   1 + 2 + 3 + 4 + 
comments
We did not receive enough feedback on this tab! Please rate:
print report bad tab
1 2 3 4 5
2 comments total.
0 reply
ThePliableFoe 24 wrote on April 1 2011, 09:56 pm

Amazing tabs as usual.

0 reply
chromaticvision 4,943 wrote on April 25 2011, 07:25 pm

me playing this at: http://www.youtube.com/watch?v=M30DeFW9JLs

I want to post or [tab]
guest
You may want to rate the tab now too:
select rating
Please do not post tabs as comments. Select "correction" instead!