Oops, an error
Loading. Please wait.

Sometimes Selling Out Is Giving Up Bass Tab

version 1
version 1

Whole song

Interactive

449 views 1 this week
no commentswrite comment
1 2 3 4 5
please rate
add to favorites
launch autoscroll
font size
0
reset
guitar tuner
Autoscroll
slow
fast
+/-
esc
set tempo
stop
Help us to improve Ultimate-Guitar.com Take our survey!
×
Author
Difficulty
novice
-------------------------------------------------------------------------------
	    Sometimes Selling Out Is Giving Up – Rise Against
-------------------------------------------------------------------------------

Tabbed By : Craig Spence
e-mail: chromatic.vision@hotmail.com

Tuning: Eb, Ab, Db, Gb

INTRO

Gb|----------------------------------|---------------------------------|
Db|----------------------------------|---------------------------------|
Ab|----------------------------------|---------------------------------|
Eb|----------------------------------|---------------------------------|
    1 + + + 2 + + + 3 + + + 4 + + +    1 + + + 2 + + + 3 + + + 4 + + + 

Gb|----------------------------------|---------------------------------|
Db|----------------------------------|---------------------------------|
Ab|----------------------------------|---------------------------------|
Eb|----------------------------------|---------------------------------|
    1 + + + 2 + + + 3 + + + 4 + + +    1 + + + 2 + + + 3 + + + 4 + + + 

VERSE

Gb|----------------------------------|---------------------------------|
Db|----------------------------------|---------------------------------|
Ab|-5---5-5---5-5-5-5---5-5---5-5-5--|-5---5-5---5-5-5-1-----------3---|
Eb|----------------------------------|-----------------------1---------|
    1 + + + 2 + + + 3 + + + 4 + + +    1 + + + 2 + + + 3 + + + 4 + + + 

Gb|----------------------------------|---------------------------------|
Db|----------------------------------|---------------------------------|
Ab|-5---5-5---5-5-5-5---5-5---5-5-5--|-5---5-5---5-5-5-1-----------3---|
Eb|----------------------------------|-----------------------1---------|
    1 + + + 2 + + + 3 + + + 4 + + +    1 + + + 2 + + + 3 + + + 4 + + + 

Gb|----------------------------------|---------------------------------|
Db|----------------------------------|---------------------------------|
Ab|-5---5-5---5-5-5-5---5-5---5-5-5--|-5---5-5---5-5-5-1-----------3---|
Eb|----------------------------------|-----------------------1---------|
    1 + + + 2 + + + 3 + + + 4 + + +    1 + + + 2 + + + 3 + + + 4 + + + 

Gb|----------------------------------|---------------------------------|
Db|----------------------------------|---------------------------------|
Ab|-5---5-5---5-5-5-5---5-5---5-5-5--|-5---5-5---5-5-5-1-----------3---|
Eb|----------------------------------|-----------------------1---------|
    1 + + + 2 + + + 3 + + + 4 + + +    1 + + + 2 + + + 3 + + + 4 + + + 

CHORUS

Gb|----------------------------------|---------------------------------|
Db|----------------------------------|---------------------------------|
Ab|-1---1-1---1-1---3---3-3---3-3----|-0---0-0---0-0---5---5-5---5-5---|
Eb|----------------------------------|---------------------------------|
    1 + + + 2 + + + 3 + + + 4 + + +    1 + + + 2 + + + 3 + + + 4 + + + 

Gb|----------------------------------|---------------------------------|
Db|----------------------------------|---------------------------------|
Ab|-1---1-1---1-1---3---3-3---3-3----|-0---0-0---0-0---5---5-5---5-5---|
Eb|----------------------------------|---------------------------------|
    1 + + + 2 + + + 3 + + + 4 + + +    1 + + + 2 + + + 3 + + + 4 + + + 

Gb|----------------------------------|---------------------------------|
Db|----------------------------------|---------------------------------|
Ab|-1---1-1---1-1---3---3-3---3-3----|-0---0-0---0-0---5---5-5---5-5---|
Eb|----------------------------------|---------------------------------|
    1 + + + 2 + + + 3 + + + 4 + + +    1 + + + 2 + + + 3 + + + 4 + + + 

Gb|----------------------------------|---------------------------------|
Db|----------------------------------|---------------------------------|
Ab|-1---1-1---1-1---3---3-3---3-3----|-0---0-0---0-0---5---5-5---5-5---|
Eb|----------------------------------|---------------------------------|
    1 + + + 2 + + + 3 + + + 4 + + +    1 + + + 2 + + + 3 + + + 4 + + + 

VERSE

Gb|----------------------------------|---------------------------------|
Db|----------------------------------|---------------------------------|
Ab|-5---5-5---5-5-5-5---5-5---5-5-5--|-5---5-5---5-5-5-1-----------3---|
Eb|----------------------------------|-----------------------1---------|
    1 + + + 2 + + + 3 + + + 4 + + +    1 + + + 2 + + + 3 + + + 4 + + + 

Gb|----------------------------------|---------------------------------|
Db|----------------------------------|---------------------------------|
Ab|-5---5-5---5-5-5-5---5-5---5-5-5--|-5---5-5---5-5-5-1-----------3---|
Eb|----------------------------------|-----------------------1---------|
    1 + + + 2 + + + 3 + + + 4 + + +    1 + + + 2 + + + 3 + + + 4 + + + 

Gb|----------------------------------|---------------------------------|
Db|----------------------------------|---------------------------------|
Ab|-5---5-5---5-5-5-5---5-5---5-5-5--|-5---5-5---5-5-5-1-----------3---|
Eb|----------------------------------|-----------------------1---------|
    1 + + + 2 + + + 3 + + + 4 + + +    1 + + + 2 + + + 3 + + + 4 + + + 

Gb|----------------------------------|---------------------------------|
Db|----------------------------------|---------------------------------|
Ab|-5---5-5---5-5-5-5---5-5---5-5-5--|-5---------------1-----------3---|
Eb|----------------------------------|-----------------------1---------|
    1 + + + 2 + + + 3 + + + 4 + + +    1 + + + 2 + + + 3 + + + 4 + + + 

CHORUS

Gb|----------------------------------|---------------------------------|
Db|----------------------------------|---------------------------------|
Ab|-1---1-1---1-1---3---3-3---3-3----|-0---0-0---0-0---5---5-5---5-5---|
Eb|----------------------------------|---------------------------------|
    1 + + + 2 + + + 3 + + + 4 + + +    1 + + + 2 + + + 3 + + + 4 + + + 

Gb|----------------------------------|---------------------------------|
Db|----------------------------------|---------------------------------|
Ab|-1---1-1---1-1---3---3-3---3-3----|-0---0-0---0-0---5---5-5---5-5---|
Eb|----------------------------------|---------------------------------|
    1 + + + 2 + + + 3 + + + 4 + + +    1 + + + 2 + + + 3 + + + 4 + + + 

Gb|----------------------------------|---------------------------------|
Db|----------------------------------|---------------------------------|
Ab|-1---1-1---1-1---3---3-3---3-3----|-0---0-0---0-0---5---5-5---5-5---|
Eb|----------------------------------|---------------------------------|
    1 + + + 2 + + + 3 + + + 4 + + +    1 + + + 2 + + + 3 + + + 4 + + + 

Gb|----------------------------------|---------------------------------|
Db|----------------------------------|---------------------------------|
Ab|-1---1-1---1-1---3---3-3---3-3----|-0---0-0---0-0---5---5-5---5-5---|
Eb|----------------------------------|---------------------------------|
    1 + + + 2 + + + 3 + + + 4 + + +    1 + + + 2 + + + 3 + + + 4 + + + 
GUITAR SOLO

Gb|----------------------------------|---------------------------------|
Db|----------------------------------|---------------------------------|
Ab|-5---5-5---5-5-5-5---5-5---5-5-5--|-1---1-1---1-1-1-1---1-1---1-1-1-|
Eb|----------------------------------|---------------------------------|
    1 + + + 2 + + + 3 + + + 4 + + +    1 + + + 2 + + + 3 + + + 4 + + + 

Gb|----------------------------------|---------------------------------|
Db|----------------------------------|---------------------------------|
Ab|----------------------------------|---------------------------------|
Eb|-1---1-1---1-1-1-1---1-1---1-1-1--|-5---5-5---5-5-5-5---5-5---5-5-5-|
    1 + + + 2 + + + 3 + + + 4 + + +    1 + + + 2 + + + 3 + + + 4 + + + 

Gb|----------------------------------|---------------------------------|
Db|----------------------------------|-------------------------0---2---|
Ab|-5---5-5---5-5-5-5---5-5---5-5-5--|-1---1-1---1-1-1-1---1-1---------|
Eb|----------------------------------|---------------------------------|
    1 + + + 2 + + + 3 + + + 4 + + +    1 + + + 2 + + + 3 + + + 4 + + + 

Gb|----------------------------------|---------------------------------|
Db|-3---3-3---3-3-3-3---3-3-3---5----|-7---7-7---7-7-7-7---7-7---7-7-7-|
Ab|----------------------------------|---------------------------------|
Eb|----------------------------------|---------------------------------|
    1 + + + 2 + + + 3 + + + 4 + + +    1 + + + 2 + + + 3 + + + 4 + + + 

OUTRO

Gb|----------------------------------|---------------------------------|
Db|----------------------------------|---------------------------------|
Ab|-5---5---5-------1---1---1--------|---------------------------------|
Eb|----------------------------------|-1---1---1-------5-------5---5---|
    1 + + + 2 + + + 3 + + + 4 + + +    1 + + + 2 + + + 3 + + + 4 + + + 

Gb|----------------------------------|---------------------------------|
Db|----------------------------------|---------------------------------|
Ab|-1---1-1---1-1-1-3---3-3---3-3-3--|-5---5-5---5-3-3-5---------------|
Eb|----------------------------------|---------------------------------|
    1 + + + 2 + + + 3 + + + 4 + + +    1 + + + 2 + + + 3 + + + 4 + + + 


| /  slide up
| \  slide down
| h  hammer-on
| p  pull-off
| ~  vibrato
| +  harmonic
| x  Mute note
===============================================================================
Suggest correction
What's this?
You can suggest a correction to this tab. Community and Mods will review your correction and vote to approve or reject it.
comments
We did not receive enough feedback on this tab! Please rate:
print report bad tab
1 2 3 4 5
guest
You may want to rate the tab now too:
select rating
Please do not post tabs as comments. Select "correction" instead!