Oops, an error
Loading. Please wait.

Sometimes Selling Out Is Giving Up Tab

version 1
version 1

Whole song

Interactive

2,045 views 6 this week
no commentswrite comment
1 2 3 4 5
excellent!
x 6
add to favorites
launch autoscroll
font size
0
reset
how to read this tab
guitar tuner
Autoscroll
slow
fast
+/-
esc
set tempo
stop
Help us to improve Ultimate-Guitar.com Take our survey!
×
Contributor
RISE AGAINST-SOMETIMES SELLING OUT IS GIVING UP
Tabbed by Ben H (PunkAsPhuck)

intro/verse 1
e|---------------------------------------------------------------------------| 
B|---------------------------------------------------------------------------| 
G|-6-6--6-6-6--6-6-6--6-----4------------------------------------------------| 
D|-6-6--6-6-6--6-6-6--6-7-2-4------------------------------------------------| 
A|-4-4--4-4-4--4-4-4--4-7-2-2------------------------------------------------| 
E|----------------------5-0--------------------------------------------------| x6

chorus
e|---------------------------------------------------------------------------| 
B|---------------------------------------------------------------------------| 
G|----------------------6-6--6----------------------6-6--6-------------------| 
D|-7-7--7-9-9--9-6-6--6-6-6--6-7-7--7-9-9--9-6-6--6-6-6--6-------------------| 
A|-7-7--7-9-9--9-6-6--6-4-4--4-7-7--7-9-9--9-6-6--6-4-4--4-------------------| 
E|-5-5--5-7-7--7-4-4--4--------5-5--5-7-7--7-4-4--4--------------------------| 

e|---------------------------------------------------------------------------| 
B|---------------------------------------------------------------------------| 
G|-9-9--9-8-8--8-8-8--8-6-6--6-9-9--9-8-8--8-8--9--8--6----------------------| 
D|-x-x--x-x-x--x-x-x--x-x-x--x-x-x--x-x-x--x-x--x--x--x----------------------| 
A|-7-7--7-6-6--6-6-6--6-4-4--4-7-7--7-6-6--6-6--7--6--4----------------------| 
E|---------------------------------------------------------------------------| 

verse 2
e|---------------------------------------------------------------------------| 
B|---------------------------------------------------------------------------| 
G|-6-6--6-6-6--6-6-6--6-----4------------------------------------------------| 
D|-6-6--6-6-6--6-6-6--6-7-2-4------------------------------------------------| 
A|-4-4--4-4-4--4-4-4--4-7-2-2------------------------------------------------| 
E|----------------------5-0--------------------------------------------------| x3

bridge
e|---------------------------------------------------------------------------| 
B|---------------------------------------------------------------------------| 
G|-6-6--6-6-6--6-6----------4------------------------------------------------| 
D|-6-6--6-6-6--6-6------7-2-4------------------------------------------------| 
A|-4-4--4-4-4--4-4------7-2-2------------------------------------------------| 
E|----------------------5-0--------------------------------------------------| 

chorus
e|---------------------------------------------------------------------------| 
B|---------------------------------------------------------------------------| 
G|----------------------6-6--6----------------------6-6--6-------------------| 
D|-7-7--7-9-9--9-6-6--6-6-6--6-7-7--7-9-9--9-6-6--6-6-6--6-------------------| 
A|-7-7--7-9-9--9-6-6--6-4-4--4-7-7--7-9-9--9-6-6--6-4-4--4-------------------| 
E|-5-5--5-7-7--7-4-4--4--------5-5--5-7-7--7-4-4--4--------------------------| 

e|---------------------------------------------------------------------------| 
B|---------------------------------------------------------------------------| 
G|-9-9--9-8-8--8-8-8--8-6-6--6-9-9--9-11-11--11-13-13--13-13-13--------------| 
D|-x-x--x-x-x--x-x-x--x-x-x--x-x-x--x--x--x---x--x--x---x--x--x--------------| 
A|-7-7--7-6-6--6-6-6--6-4-4--4-7-7--7--9--9---9-11-11--11-11-11--------------| 
E|---------------------------------------------------------------------------| 

solo
e|---------------------------------------------------------------------------| 
B|------------------------------------------------10-9--7--------------------| 
G|-9-8--6-9-8--6-9-8--6---------------5----9-8--6---------9-8--6-------------| 
D|----------------------7---6--9-6--9----------------------------------------| 
A|---------------------------------------------------------------------------| 
E|---------------------------------------------------------------------------| 

e|-9---7--9--12--9--11-------------------------------------------------------| 
B|---------------------------------------------------------------------------| 
G|---------------------------------------------------------------------------| 
D|---------------------------------------------------------------------------| 
A|---------------------------------------------------------------------------| 
E|---------------------------------------------------------------------------| 

outro 
e|---------------------------------------------------------------------------| 
B|---------------------------------------------------------------------------| 
G|-x-x-6-----------------------------4-4--4-6-6--4-6-------------------------| 
D|-x-x-6--x-x-7-2-2--2-6-6--6-7-7--7-4-4--4-6-6--4-6-------------------------| 
A|-x-x-4--x-x-7-2-2--2-6-6--6-7-7--7-2-2--2-4-4--2-4-------------------------| 
E|--------x-x-5-0-0--0-4-4--4-5-5--5-----------------------------------------|
comments
print report bad tab
I want to post or [tab]
guest
You may want to rate the tab now too:
select rating
Please do not post tabs as comments. Select "correction" instead!