Oops, an error
Loading. Please wait.

Stained Glass And Marble Tab

version 2
version 2

Whole song

164 views 3 this week
1 commentread comment
1 2 3 4 5
excellent!
x 2
add to favorites
launch autoscroll
font size
0
reset
how to read this tab
guitar tuner
Tab Pro tools
  • play this tab
  • loop segment
  • change instrument
  • show fretboard
  • metronome
Autoscroll
slow
fast
+/-
esc
set tempo
stop
Difficulty
novice
Rise Against - Stained Glass And Marble Tab
Tabbed by Blacknex
Standard tuning

This song is easy to play, but its fastness may make it harder.

Begins with

|-------|
|-------|
|--5-3--|
|--5-3--|
|--3-1--|
|-------|

The intro
---------

Strumming pattern: |iI I | iI I | (i = eight note, I = quarter note) Steady relaxed 
handwork up and downstrokes

|-----------------------------|
|-----------------------------|
|----------8--7-------5-3-----|
|--7----3--8--7-------5-3-----|
|--7----3--6--5-------3-1-----|
|--5----1---------------------|


|-----------------------------|
|-----------------------------|
|----------8--7---------------|
|--7----3--8--7-------8-------|
|--7----3--6--5-------8-------|
|--5----1-------------6-------|

Verse
------

|---------------|
|---------------|
|--7---------8--|
|--7----8-7--8--|
|--5----8-7--6--|
|-------6-5-----| x4


Chorus
------

|-------------------|
|-------------------|
|--10--12--13----8--|
|--------------8-8--|
|--8---10--11--8-6--|
|--------------6----|


|-------------------------|
|-------------------------|
|--7-------------------8--|
|--7--------10-8--7--8-8--|
|--5-----------------8-6--|
|-----------8--6--5--6----|


|----------|
|----------|
|--7-------|
|--7-------|
|--5-------|
|----------|

|-------------------|
|-------------------|
|--10--12--13----8--|
|--------------8-8--|
|--8---10--11--8-6--|
|--------------6----|

|---------------------------|
|---------------------------|
|--7---------------------8--|
|--7--------10-8--7----8-8--|
|--5-------------------8-6--|
|-----------8--6--5----6----|

Only the first chorus:

|--------------|
|--------------|
|--7-----------|
|--7--------8--|
|--5--------8--|
|-----------6--|

Verse (scroll up)

Chorus (see above)

Bridge 1
--------

Strumming pattern is easy to find as you can hear it pretty easily

|-------------------------------------------|
|-------------------------------------------|
|--7----5--8--7----5--7--8----10-7----5--8--|
|--7----5--8--7----5--7--8----10-7----5--8--|
|--5----3--6--5----3--5--6----8--5----3--6--|
|-------------------------------------------|


|-------------------------------------------|
|-------------------------------------------|
|--7----5--8--7----5--7--8----10-7----5--3--|
|--7----5--8--7----5--7--8----10-7----5--3--|
|--5----3--6--5----3--5--6----8--5----3--1--|
|-------------------------------------------|

Bridge 2 uses the same chord pattern as intro, but you have to adjust your strumming pattern.
--------

Basic strumming pattern:

| I iI iii | I I I I | I iI iii | I iI II |

End
----

|--------------|
|--------------|
|--10--12--13--|
|--------------|
|--8---10--11--|
|--------------|
comments
We did not receive enough feedback on this tab! Please rate:
print report bad tab
1 2 3 4 5
1 comment total.
0 reply
blacknex wrote on January 18 2013, 09:47 am

Replace every

|--------|
|--------|
|-----8--|
|--8--8--|
|--8--6--|
|--6-----|

with

|--------|
|--------|
|--5--8--|
|--5--8--|
|--3--6--|
|--------|

And get the rhythm of bridges yourself. I made a great mistake by trying to give it.

Sorry for that.

I want to post or [tab]
guest
You may want to rate the tab now too:
select rating
Please do not post tabs as comments. Select "correction" instead!