Oops, an error
Loading. Please wait.

State Of The Union tab

version 1
version 1

Whole song

Interactive

34,082 views 24 this week
20 commentsread comments
1 2 3 4 5
x 30
add to favorites
×
Save as Personal and add changes to this tab that will be seen only by you. Learn more ›
×
You can save this tab as Personal to edit and correct it or add notes. All changes will be seen only by you. Learn more »
launch autoscroll
font size
0
reset
how to read this tab
guitar tuner
edit
Autoscroll
slow
fast
+/-
esc
set tempo
stop
Author
-----------------------------------------------------------------------------
                    STATE OF THE UNION - Rise Against
-----------------------------------------------------------------------------
Tabbed by:Tcurtis
Email:  punkguy4182@yahoo.com

Tuning:  D-A-D-G-B-E

Intro:
e|--------------------------------------------------------------------------|
B|--------------------------------------------------------------------------|
G|--------------------------------------------------------------------------|
D|-1111222233334444---------------------------------------------------------|
A|-1111222233334444---------------------------------------------------------|
E|-1111222233334444---------------------------------------------------------|

pre-verse:
e|--------------------------------------------------------------------------|
B|--------------------------------------------------------------------------|
G|---888------------888------------888--------------------------------------|
D|-1-888-4h66664--1-888-4h66666--1-888-4h66664--1-4-6-7-6-4-1~~1------------|
A|-1-666-4h66664--1-666-4h66666--1-666-4h66664--1-4-6-7-6-4-1~~1------------|
E|-1-----4h66664--1-----4h66666--1-----4h66664--1-4-6-7-6-4-1~~1------------|
pm:                                             . . . . . . 

verse pt1:
e|-----------------------------------------------------------------|
B|-----------------------------------------------------------------|
G|-3-----3-------6666-4-3-----3-------44444-3----------------------|
D|-3-1---3-1---1-6666-4-3-1---3-1---1-44444-3-1--------------------|
A|-1-1---1-1---1-4444-2-1-1---1-1---1-22222-1-1--------------------|
E|---1-----1---1----------1-----1---1---------1--------------------|

verse pt2 (guitar 1):
e|--------------------------------------------------------------------------|
B|--------------------------------------------------------------------------|
G|-3-------6666-4-3-----3---4444444444446666--------------------------------|
D|-3-1---1-6666-4-3-1---3-1-4444444444446666--------------------------------|
A|-1-1---1-4444-2-1-1---1-1-2222222222224444--------------------------------|
E|---1---1----------1-----1-------------------------------------------------|

verse pt2 (guitar 2):
e|--------------------------------------------------------------------------|
B|--------------------------------------------------------------------------|
G|-8------------------------------------------------------------------------|
D|-x-(x a lot, you can hear it if you listen)-------------------------------|
A|-6------------------------------------------------------------------------|
E|--------------------------------------------------------------------------|

chorus:
e|--------------------------------------------------------------------------|
B|--------------------------------------------------------------------------|
G|---888------------888------------888--------------------------------------|
D|-1-888-4h66664--1-888-4h66666--1-888-4h66664--1-4-6-7-6-4-1---------------|
A|-1-666-4h66664--1-666-4h66666--1-666-4h66664--1-4-6-7-6-4-1---------------|
E|-1-----4h66664--1-----4h66666--1-----4h66664--1-4-6-7-6-4-1---------------|
pm:                                             . . . . . . 

pre-bridge:
e|--------------------------------------------------------------------------|
B|--------------------------------------------------------------------------|
G|--------------------------------------------------------------------------|
D|-1-4-6-7-6-4-1-4-6-7-6-4--------------------------------------------------|
A|-1-4-6-7-6-4-1-4-6-7-6-4--------------------------------------------------|
E|-1-4-6-7-6-4-1-4-6-7-6-4--------------------------------------------------|
pm:. . . . . . . . . . . .

bridge pt1: 
e|-----------------------------------------------------------------------|
B|-----------------------------------------------------------------------|
G|-----8-----------------------------------------------------------------|
D|-----8-7-1-1-6-1-1-4-1-------------------------------------------------|
A|-----6-7-1-1-6-1-1-4-1-x-3---------------------------------------------|
E|-4-1---7-1-1-6-1-1-4-1------------------------------------------------|
pm:       .. .. .    

bridge pt2:
e|---------------------------------------------------------------|
B|---------------------------------------------------------------|
G|---------------------------------------------------------------|
D|-1-4-6-7-6-4---------------------------------------------------|
A|-1-4-6-7-6-4---------------------------------------------------|
E|-1-4-6-7-6-4---------------------------------------------------|
pm:. . . . . . 

End On:
e|--------|
B|--------|
G|--------|
D|-1~-----|
A|-1~-----|
E|-1~-----|

ORDER:
Intro x4
pre-verse x2
verse pt1 x1
verese pt2 x1
chorus x2
verse pt1 x1
verse pt2 x1
chorus x2
pre-bridge x1
bridge pt1 x1
bridge pt2 x1
bridge pt1 x1
bridge pt2 x1
bridge pt1 x1
bridge pt2 x3
End On

************************************

| /  slide up
| \  slide down
| h  hammer-on
| p  pull-off
| ~  vibrato
| +  harmonic

************************************

            
            
Suggest correction
Creating personal tab
Creating personal tab
You can edit any tab online and save it as your Personal.

You can edit, replace or remove any tab part or add personal notes – all changes will be seen only by you.

Personal tabs can be accessed anytime from any device, even offline.
Learn more »
comments
print report bad tab
20 comments total. Showing first comments.
0 reply
Shredder01 10 Jul 17, 2005 08:00 PM

Awesome tab!

+1 reply
Zamboni 1,609 Nov 24, 2005 01:22 AM

The song is actually in Eb, not Drop D.

0 reply
eldanny 10 Jan 28, 2006 10:14 AM

wen u say eb is that just the e string or all strings?

guest
You may want to rate the tab now too:
select rating
Wanna post a correction for this tab? Suggest correction