Oops, an error
Loading. Please wait.

State Of The Union tab

version 4
version 4

Whole song

Interactive

18,247 views 6 this week
3 commentsread comments
1 2 3 4 5
x 19
add to favorites
×
Save as Personal and add changes to this tab that will be seen only by you. Learn more ›
×
You can save this tab as Personal to edit and correct it or add notes. All changes will be seen only by you. Learn more »
launch autoscroll
font size
0
reset
how to read this tab
guitar tuner
edit
Autoscroll
slow
fast
+/-
esc
set tempo
stop
State Of The Union

By Rise Against


Tuning = down half a step.

Info---
Im pretty sure this is close to the actual song,
I saw them play live and Chris was Playing,
Something along this, the song is,
NOT IN STANDARD TUNING



Intro
e|------------------------------------------------------------------|
B|------------------------------------------------------------------|
G|------------------------------------------------------------------|
D|------------------------------------------------------------------| x4
A|-2-2-2-2-3-3-3-3-4-4-4-4-5-5-5-5----------------------------------|
E|-0-0-0-0-1-1-1-1-2-2-2-2-3-3-3-3----------------------------------|

Chorus
e|------------------------------------------------------------------|
B|------------------------------------------------------------------|
G|------------------------------------------------------------------|
D|----9-9-9---------------------------------------------------------| x3
A|-2--7-7-7--5-5-7-7-5----------------------------------------------|
E|-0---------3-3-5-5-3----------------------------------------------|


e|------------------------------------------------------------------|
B|------------------------------------------------------------------|
G|------------------------------------------------------------------|
D|-------------2-2--------------------------------------------------|
A|-2-5-7-8-7-5-2-2--------------------------------------------------|
E|-0-3-5-6-5-3-0-0--------------------------------------------------|
   . . . . . . 

e|------------------------------------------------------------------|
B|------------------------------------------------------------------|
G|------------------------------------------------------------------|
D|----9-9-9---------------------------------------------------------| x3
A|-2--7-7-7--5-5-7-7-5----------------------------------------------|
E|-0---------3-3-5-5-3----------------------------------------------|

e|------------------------------------------------------------------|
B|------------------------------------------------------------------|
G|------------------------------------------------------------------|
D|-------------2-2--------------------------------------------------|
A|-2-5-7-8-7-5-2-2--------------------------------------------------|
E|-0-3-5-6-5-3-0-0--------------------------------------------------|
   . . . . . . 

Verse
e|------------------------------------------------------------------|
B|------------------------------------------------------------------|
G|------------------------------------------------------------------|
D|-4--------4-------4-7-5-4------4-----4-5-5-5-5-5-5-5-5-4----------|
A|-2-2------2-2-----2-5-3-2-2----2-2---2-3-3-3-3-3-3-3-3-2-2--------|
E|---0--------0-------------0------0-----------------------0--------|


e|------------------------------------------------------------------|
B|------------------------------------------------------------------|
G|-9-9-9-9-9-9-9-9-----9-9-9-9--------------------------------------|
D|-x-x-x-x-x-x-x-x-4---x-x-x-x-4-7-5-4------------------------------|
A|-7-7-7-7-7-7-7-7-2-2-7-7-7-7-2-5-3-2-2----------------------------|
E|-------------------0-----------------0----------------------------|


e|------------------------------------------------------------------|
B|------------------------------------------------------------------|
G|-9-9-9-9-9-9-9-9-----9-9-9-9--------------------------------------|
D|-x-x-x-x-x-x-x-x-4---x-x-x-x-5-5-5-5-5-5-5-5-5-5-5-5-7-7-7-7-7-7-7|
A|-7-7-7-7-7-7-7-7-2-2-7-7-7-7-3-3-3-3-3-3-3-3-3-3-3-3-5-5-5-5-5-5-5|
E|-------------------0----------------------------------------------|

Chorus
e|------------------------------------------------------------------|
B|------------------------------------------------------------------|
G|------------------------------------------------------------------|
D|----9-9-9---------------------------------------------------------| x3
A|-2--7-7-7--5-5-7-7-5----------------------------------------------|
E|-0---------3-3-5-5-3----------------------------------------------|


e|------------------------------------------------------------------|
B|------------------------------------------------------------------|
G|------------------------------------------------------------------|
D|-------------2----------------------------------------------------|
A|-2-5-7-8-7-5-2----------------------------------------------------|
E|-0-3-5-6-5-3-0----------------------------------------------------|
   . . . . . .

e|------------------------------------------------------------------|
B|------------------------------------------------------------------|
G|------------------------------------------------------------------|
D|----9-9-9---------------------------------------------------------| x3
A|-2--7-7-7--5-5-7-7-5----------------------------------------------|
E|-0---------3-3-5-5-3----------------------------------------------|


e|------------------------------------------------------------------|
B|------------------------------------------------------------------|
G|------------------------------------------------------------------|
D|-------------2----------------------------------------------------|
A|-2-5-7-8-7-5-2----------------------------------------------------|
E|-0-3-5-6-5-3-0----------------------------------------------------|
   . . . . . .

Verse
e|------------------------------------------------------------------|
B|------------------------------------------------------------------|
G|------------------------------------------------------------------|
D|-4--------4-------4-7-5-4------4-----4-5-5-5-5-5-5-5-5-4----------|
A|-2-2------2-2-----2-5-3-2-2----2-2---2-3-3-3-3-3-3-3-3-2-2--------|
E|---0--------0-------------0------0-----------------------0--------|


e|------------------------------------------------------------------|
B|------------------------------------------------------------------|
G|-9-9-9-9-9-9-9-9-----9-9-9-9--------------------------------------|
D|-x-x-x-x-x-x-x-x-4---x-x-x-x-4-7-5-4------------------------------|
A|-7-7-7-7-7-7-7-7-2-2-7-7-7-7-2-5-3-2-2----------------------------|
E|-------------------0-----------------0----------------------------|


e|------------------------------------------------------------------|
B|------------------------------------------------------------------|
G|-9-9-9-9-9-9-9-9-----9-9-9-9--------------------------------------|
D|-x-x-x-x-x-x-x-x-4---x-x-x-x-5-5-5-5-5-5-5-5-5-5-5-5-7-7-7-7-7-7-7|
A|-7-7-7-7-7-7-7-7-2-2-7-7-7-7-3-3-3-3-3-3-3-3-3-3-3-3-5-5-5-5-5-5-5|
E|-------------------0----------------------------------------------|


Chorus
e|------------------------------------------------------------------|
B|------------------------------------------------------------------|
G|------------------------------------------------------------------|
D|----9-9-9---------------------------------------------------------| x3
A|-2--7-7-7--5-5-7-7-5----------------------------------------------|
E|-0---------3-3-5-5-3----------------------------------------------|


e|------------------------------------------------------------------|
B|------------------------------------------------------------------|
G|------------------------------------------------------------------|
D|-------------2----------------------------------------------------|
A|-2-5-7-8-7-5-2----------------------------------------------------|
E|-0-3-5-6-5-3-0----------------------------------------------------|
   . . . . . .

e|------------------------------------------------------------------|
B|------------------------------------------------------------------|
G|------------------------------------------------------------------|
D|----9-9-9---------------------------------------------------------| x3
A|-2--7-7-7--5-5-7-7-5----------------------------------------------|
E|-0---------3-3-5-5-3----------------------------------------------|


Bridge
e|------------------------------------------------------------------|
B|------------------------------------------------------------------|
G|------------------------------------------------------------------|
D|------------------------------------------------------------------|x3
A|-2-5-7-8-7-5------------------------------------------------------|
E|-0-3-5-6-5-3------------------------------------------------------|
   . . . . . .

e|-----0-------------------------------------------------------------|
B|-----0-------------------------------------------------------------|
G|-------------------------------------------------------------------|
D|-5-2---------------------------------------------------------------| x3
A|-5-2----1---0------------------------------------------------------|
E|-3-0---0-0-0--0-0-3-0----------------------------------------------|


e|------------------------------------------------------------------|
B|------------------------------------------------------------------|
G|------------------------------------------------------------------|
D|------------------------------------------------------------------|
A|-2-5-7-8-7-5------------------------------------------------------|
E|-0-3-5-6-5-3------------------------------------------------------|
   . . . . . .

e|------------------------------------------------------------------|
B|------------------------------------------------------------------|
G|------------------------------------------------------------------|
D|-5-----------4-------2--------------------------------------------| x3
A|-5-2-2-2-2-2-2-2-2-2-0-2-2----------------------------------------|
E|-3-0-0-0-0-0---0-0-0---0-0----------------------------------------|


e|------------------------------------------------------------------|
B|------------------------------------------------------------------|
G|------------------------------------------------------------------|
D|------------------------------------------------------------------|
A|-2-5-7-8-7-5------------------------------------------------------|
E|-0-3-5-6-5-3------------------------------------------------------|
   . . . . . .

e|------------------------------------------------------------------|
B|------------------------------------------------------------------|
G|------------------------------------------------------------------|
D|-5-----------------------5-5--------------------------------------| x3
A|-5-2-2-2-2-2-9-9-9-8-8-8-5-5--------------------------------------|
E|-3-0-0-0-0-0-7-7-7-6-6-6-3-3--------------------------------------|
                 . .   . .

                      ( On 3rd Time End On)
e|------------------|-----------------------------------------------|
B|------------------|-----------------------------------------------|
G|------------------|-----------------------------------------------|
D|------------------|-2---------------------------------------------|x3
A|-2-5-7-8-7-5------|-2---------------------------------------------|
E|-0-3-5-6-5-3------|-0---------------------------------------------|
   . . . . . .



Palm Mute = .
X = Dont play

            
            
Suggest correction
Creating personal tab
Creating personal tab
You can edit any tab online and save it as your Personal.

You can edit, replace or remove any tab part or add personal notes – all changes will be seen only by you.

Personal tabs can be accessed anytime from any device, even offline.
Learn more »
comments
print report bad tab
3 comments total.
0 reply
JGunit 52 Dec 10, 2009 09:19 PM

sounds much better than the other versions

0 reply
Withoutadout 10 Jan 05, 2010 03:04 PM

thanks a lot man this helped
its very close to the real thing

+2 reply
ElectedAmnesia 10 Jun 17, 2011 08:49 PM

Thank you for getting it right, and not putting it in drop D. Idk why people do, Eb is what RA plays in.

guest
You may want to rate the tab now too:
select rating
Wanna post a correction for this tab? Suggest correction