Oops, an error
Loading. Please wait.

State Of The Union tab

version 6
version 6

Whole song

Interactive

2,630 views 1 this week
1 commentread comment
1 2 3 4 5
2 more votes to show rating
add to favorites
×
Save as Personal and add changes to this tab that will be seen only by you. Learn more ›
×
You can save this tab as Personal to edit and correct it or add notes. All changes will be seen only by you. Learn more »
launch autoscroll
font size
0
reset
how to read this tab
guitar tuner
edit
Autoscroll
slow
fast
+/-
esc
set tempo
stop
State of The Union
Rise Against
Siren Song of The Counter Culture (2004)

State of The Union:  written by Tim McIlrath, Chris Chasse, Joe Principe, and 
Brandon Barnes

GTR I - Eb Tuning "Tim McIlrath" (eb,Bb,Gb,Db,Ab,Eb)
GTR II - Eb Tuning "Chris Chasse" (eb,Bb,Gb,Db,Ab,Eb)

Intro

   GTR I,II
eb|-------------------------|-------------------------|
Bb|-------------------------|-------------------------|
Gb|-------------------------|-------------------------|
Db|--2--2--2--2--3--3--3--3-|--4--4--4--4--5--5--5--5-|
Ab|--2--2--2--2--3--3--3--3-|--4--4--4--4--5--5--5--5-|
Eb|--0--0--0--0--1--1--1--1-|--2--2--2--2--3--3--3--3-|

   GTR I,II
eb|-------------------------|-------------------------|
Bb|-------------------------|-------------------------|
Gb|-------------------------|-------------------------|
Db|--2--2--2--2--3--3--3--3-|--4--4--4--4--5--5--5--5-|
Ab|--2--2--2--2--3--3--3--3-|--4--4--4--4--5--5--5--5-|
Eb|--0--0--0--0--1--1--1--1-|--2--2--2--2--3--3--3--3-|

   GTR I,II
eb|-------------------------|-------------------------|
Bb|-------------------------|-------------------------|
Gb|-------------------------|-------------------------|
Db|--2--2--2--2--3--3--3--3-|--4--4--4--4--5--5--5--5-|
Ab|--2--2--2--2--3--3--3--3-|--4--4--4--4--5--5--5--5-|
Eb|--0--0--0--0--1--1--1--1-|--2--2--2--2--3--3--3--3-|

   GTR I,II
eb|-------------------------|-------------------------|
Bb|-------------------------|-------------------------|
Gb|-------------------------|-------------------------|
Db|--2--2--2--2--3--3--3--3-|--4--4--4--4--5--5--5--5-|
Ab|--2--2--2--2--3--3--3--3-|--4--4--4--4--5--5--5--5-|
Eb|--0--0--0--0--1--1--1--1-|--2--2--2--2--3--3--3--3-|

Pre Verse

   GTR I
eb|-------------------------|-------------------------|
Bb|-------------------------|-------------------------|
Gb|-----------9-------------|-------------------------|
Db|--2--2--2--9--------5----|--5/-7--7--7-----5--5----|
Ab|--2--2--2--7--------5----|--5/-7--7--7-----5--5----|
Eb|--0--0--0--------0--3--0-|--3/-5--5--5-----3--3----|

   GTR I,II
eb|-------------------------|-------------------------|
Bb|-------------------------|-------------------------|
Gb|-----------9-------------|-------------------------|
Db|--2--2--2--9--------5----|--5/-7--7--7-----7--7----|
Ab|--2--2--2--7--------5----|--5/-7--7--7-----7--7----|
Eb|--0--0--0--------0--3--0-|--3/-5--5--5-----5--5----|

   GTR I,II
eb|-------------------------|-------------------------|
Bb|-------------------------|-------------------------|
Gb|-----------9-------------|-------------------------|
Db|--2--2--2--9--------5----|--5/-7--7--7-----5--5----|
Ab|--2--2--2--7--------5----|--5/-7--7--7-----5--5----|
Eb|--0--0--0--------0--3--0-|--3/-5--5--5-----3--3----|

   GTR I,II
eb|-------------------------|-------------------------|
Bb|-------------------------|-------------------------|
Gb|-------------------------|-------------------------|
Db|-------------------------|--------------2----------|
Ab|--2-----5-----7-----8----|--7-----5-----2----------|
Eb|--0-----3-----5-----6----|--5-----3-----0----------|
     .     .     .     .       .     .

   GTR I,II
eb|-------------------------|-------------------------|
Bb|-------------------------|-------------------------|
Gb|-----------------------9-|-------------------------|
Db|--2-----------2--2--2--9-|--------5-----5/-7--7--7-|
Ab|--2-----------2--2--2--7-|--------5-----5/-7--7--7-|
Eb|--0-----------0--0--0----|-----0--3--0--3/-5--5--5-|

   GTR I,II
eb|-------------------------|-------------------------|
Bb|-------------------------|-------------------------|
Gb|-----------------------9-|-------------------------|
Db|-----5--5-----2--2--2--9-|--------5-----5/-7--7--7-|
Ab|-----5--5-----2--2--2--7-|--------5-----5/-7--7--7-|
Eb|-----3--3-----0--0--0----|-----0--3--0--3/-5--5--5-|

   GTR I,II
eb|-------------------------|-------------------------|
Bb|-------------------------|-------------------------|
Gb|-----------------------9-|-------------------------|
Db|-----7--7-----2--2--2--9-|--------5-----5/-7--7--7-|
Ab|-----7--7-----2--2--2--7-|--------5-----5/-7--7--7-|
Eb|-----5--5-----0--0--0----|-----0--3--0--3/-5--5--5-|

   GTR I,II
eb|-------------------------|-------------------------|
Bb|-------------------------|-------------------------|
Gb|-------------------------|-------------------------|
Db|-----5--5----------------|-------------------------|
Ab|-----5--5-----2-----5----|--7-----8-----7-----5----|
Eb|-----3--3-----0-----3----|--5-----6-----5-----3----|
                 .     .       .     .     .     .

                             Verse

   GTR I
eb|-------------------------|-------------------------|
Bb|-------------------------|-------------------------|
Gb|-------------------------|-------------------------|
Db|--2-----------2----------|-------------------------|
Ab|--2-----------2----------|-------------------------|
Eb|--0-----------0----------|-------------------------|
  |
  |GTR II
eb|-------------------------|-------------------------|
Bb|-------------------------|-------------------------|
Gb|-------------------------|--4----------------------|
Db|--2-----------2----------|--4-----2----------------|
Ab|--2-----------2----------|--2-----2----------------|
Eb|--0-----------0----------|--------0----------------|


   GTR II
eb|-------------------------|-------------------------|
Bb|-------------------------|-------------------------|
Gb|-------------------------|--4----------------------|
Db|-------------------------|--4-----2----------------|
Ab|-------------------------|--2-----2----------------|
Eb|-------------------------|--------0----------------|

   GTR II
eb|-------------------------|-------------------------|
Bb|-------------------------|-------------------------|
Gb|--4--4--6--7-----7--6----|--4----------------------|
Db|--4--4--6--7-----7--6----|--4-----2----------------|
Ab|--2--2--4--5-----5--4----|--2-----2----------------|
Eb|-------------------------|--------0----------------|

   GTR II
eb|-------------------------|-------------------------|
Bb|-------------------------|-------------------------|
Gb|-------------------------|--4----------------------|
Db|-------------------------|--4-----2----------------|
Ab|-------------------------|--2-----2----------------|
Eb|-------------------------|--------0----------------|

   GTR I
eb|-------------------------|-------------------------|
Bb|-------------------------|-------------------------|
Gb|-------------------------|--------------9--9--9--9-|
Db|-------------------------|--------------x--x--x--x-|
Ab|-------------------------|--------------7--7--7--7-|
Eb|-------------------------|-------------------------|
  |
  |GTR II
eb|-------------------------|-------------------------|
Bb|-------------------------|-------------------------|
Gb|--5--5--5--5-----5--5----|--4----------------------|
Db|--5--5--5--5-----5--5----|--4-----2----------------|
Ab|--3--3--3--3-----3--3----|--2-----2----------------|
Eb|-------------------------|--------0----------------|

   GTR I
eb|-------------------------|-------------------------|
Bb|-------------------------|-------------------------|
Gb|--9--9--9--9--9--9--9--9-|--9--9--9--9--9--9--9--9-|
Db|--x--x--x--x--x--x--x--x-|--x--x--x--x--x--x--x--x-|
Ab|--7--7--7--7--7--7--7--7-|--7--7--7--7--7--7--7--7-|
Eb|-------------------------|-------------------------|
  |
  |GTR II
eb|-------------------------|-------------------------|
Bb|-------------------------|-------------------------|
Gb|-------------------------|--4----------------------|
Db|-------------------------|--4-----2----------------|
Ab|-------------------------|--2-----2----------------|
Eb|-------------------------|--------0----------------|

   GTR I
eb|-------------------------|-------------------------|
Bb|-------------------------|-------------------------|
Gb|--9--9--9--9--9--9--9--9-|--9--9--9--9--9--9--9--9-|
Db|--x--x--x--x--x--x--x--x-|--x--x--x--x--x--x--x--x-|
Ab|--7--7--7--7--7--7--7--7-|--7--7--7--7--7--7--7--7-|
Eb|-------------------------|-------------------------|
  |
  |GTR II
eb|-------------------------|-------------------------|
Bb|-------------------------|-------------------------|
Gb|--4--4--6--7-----7--6----|--4----------------------|
Db|--4--4--6--7-----7--6----|--4-----2----------------|
Ab|--2--2--4--5-----5--4----|--2-----2----------------|
Eb|-------------------------|--------0----------------|

   GTR I
eb|-------------------------|-------------------------|
Bb|-------------------------|-------------------------|
Gb|--9--9--9--9--9--9--9--9-|--9--9--9--9--9--9--9--9-|
Db|--x--x--x--x--x--x--x--x-|--x--x--x--x--x--x--x--x-|
Ab|--7--7--7--7--7--7--7--7-|--7--7--7--7--7--7--7--7-|
Eb|-------------------------|-------------------------|
  |
  |GTR II
eb|-------------------------|-------------------------|
Bb|-------------------------|-------------------------|
Gb|-------------------------|--4----------------------|
Db|-------------------------|--4-----2----------------|
Ab|-------------------------|--2-----2----------------|
Eb|-------------------------|--------0----------------|

   GTR I,II
eb|-------------------------|-------------------------|
Bb|-------------------------|-------------------------|
Gb|--5--5--5--5-----5--5----|--5--5--5--5-----5--5----|
Db|--5--5--5--5-----5--5----|--5--5--5--5-----5--5----|
Ab|--3--3--3--3-----3--3----|--3--3--3--3-----3--3----|
Eb|-------------------------|-------------------------|

   GTR I,II
eb|-------------------------|-------------------------|
Bb|-------------------------|-------------------------|
Gb|--5--5--5--5-----5--5----|--7--7--7--7--7--7--7--7-|
Db|--5--5--5--5-----5--5----|--7--7--7--7--7--7--7--7-|
Ab|--3--3--3--3-----3--3----|--5--5--5--5--5--5--5--5-|
Eb|-------------------------|-------------------------|

Chorus

   GTR I,II
eb|-------------------------|-------------------------|
Bb|-------------------------|-------------------------|
Gb|-----------9-------------|-------------------------|
Db|--2--2--2--9--------5----|--5/-7--7--7-----5--5----|
Ab|--2--2--2--7--------5----|--5/-7--7--7-----5--5----|
Eb|--0--0--0--------0--3--0-|--3/-5--5--5-----3--3----|

   GTR I,II
eb|-------------------------|-------------------------|
Bb|-------------------------|-------------------------|
Gb|-----------9-------------|-------------------------|
Db|--2--2--2--9--------5----|--5/-7--7--7-----7--7----|
Ab|--2--2--2--7--------5----|--5/-7--7--7-----7--7----|
Eb|--0--0--0--------0--3--0-|--3/-5--5--5-----5--5----|

   GTR I,II
eb|-------------------------|-------------------------|
Bb|-------------------------|-------------------------|
Gb|-----------9-------------|-------------------------|
Db|--2--2--2--9--------5----|--5/-7--7--7-----5--5----|
Ab|--2--2--2--7--------5----|--5/-7--7--7-----5--5----|
Eb|--0--0--0--------0--3--0-|--3/-5--5--5-----3--3----|

   GTR I,II
eb|-------------------------|-------------------------|
Bb|-------------------------|-------------------------|
Gb|-------------------------|-------------------------|
Db|-------------------------|--------------2----------|
Ab|--2-----5-----7-----8----|--7-----5-----2----------|
Eb|--0-----3-----5-----6----|--5-----3-----0----------|
     .     .     .     .       .     .

   GTR I,II
eb|-------------------------|-------------------------|
Bb|-------------------------|-------------------------|
Gb|-----------9-------------|-------------------------|
Db|--2--2--2--9--------5----|--5/-7--7--7-----5--5----|
Ab|--2--2--2--7--------5----|--5/-7--7--7-----5--5----|
Eb|--0--0--0--------0--3--0-|--3/-5--5--5-----3--3----|

   GTR I,II
eb|-------------------------|-------------------------|
Bb|-------------------------|-------------------------|
Gb|-----------9-------------|-------------------------|
Db|--2--2--2--9--------5----|--5/-7--7--7-----7--7----|
Ab|--2--2--2--7--------5----|--5/-7--7--7-----7--7----|
Eb|--0--0--0--------0--3--0-|--3/-5--5--5-----5--5----|

   GTR I,II
eb|-------------------------|-------------------------|
Bb|-------------------------|-------------------------|
Gb|-----------9-------------|-------------------------|
Db|--2--2--2--9--------5----|--5/-7--7--7-----5--5----|
Ab|--2--2--2--7--------5----|--5/-7--7--7-----5--5----|
Eb|--0--0--0--------0--3--0-|--3/-5--5--5-----3--3----|

   GTR I,II
eb|-------------------------|-------------------------|
Bb|-------------------------|-------------------------|
Gb|-------------------------|-------------------------|
Db|-------------------------|--------------2----------|
Ab|--2-----5-----7-----8----|--7-----5-----2----------|
Eb|--0-----3-----5-----6----|--5-----3-----0----------|
     .     .     .     .       .     .

Verse

   GTR II
eb|-------------------------|-------------------------|
Bb|-------------------------|-------------------------|
Gb|--4----------------------|-------------------------|
Db|--4-----2----------------|-------------------------|
Ab|--2-----2----------------|-------------------------|
Eb|--------0----------------|-------------------------|

   GTR II
eb|-------------------------|-------------------------|
Bb|-------------------------|-------------------------|
Gb|--4----------------------|--4--4--6--7-----7--6----|
Db|--4-----2----------------|--4--4--6--7-----7--6----|
Ab|--2-----2----------------|--2--2--4--5-----5--4----|
Eb|--------0----------------|-------------------------|

   GTR II
eb|-------------------------|-------------------------|
Bb|-------------------------|-------------------------|
Gb|--4----------------------|-------------------------|
Db|--4-----2----------------|-------------------------|
Ab|--2-----2----------------|-------------------------|
Eb|--------0----------------|-------------------------|

   GTR II
eb|-------------------------|-------------------------|
Bb|-------------------------|-------------------------|
Gb|--4----------------------|--5--5--5--5-----5--5----|
Db|--4-----2----------------|--5--5--5--5-----5--5----|
Ab|--2-----2----------------|--3--3--3--3-----3--3----|
Eb|--------0----------------|-------------------------|

   GTR I
eb|-------------------------|-------------------------|
Bb|-------------------------|-------------------------|
Gb|--------------9--9--9--9-|--9--9--9--9--9--9--9--9-|
Db|--------------x--x--x--x-|--x--x--x--x--x--x--x--x-|
Ab|--------------7--7--7--7-|--7--7--7--7--7--7--7--7-|
Eb|-------------------------|-------------------------|
  |
  |GTR II
eb|-------------------------|-------------------------|
Bb|-------------------------|-------------------------|
Gb|--4----------------------|-------------------------|
Db|--4-----2----------------|-------------------------|
Ab|--2-----2----------------|-------------------------|
Eb|--------0----------------|-------------------------|

   GTR I
eb|-------------------------|-------------------------|
Bb|-------------------------|-------------------------|
Gb|--9--9--9--9--9--9--9--9-|--9--9--9--9--9--9--9--9-|
Db|--x--x--x--x--x--x--x--x-|--x--x--x--x--x--x--x--x-|
Ab|--7--7--7--7--7--7--7--7-|--7--7--7--7--7--7--7--7-|
Eb|-------------------------|-------------------------|
  |
  |GTR II
eb|-------------------------|-------------------------|
Bb|-------------------------|-------------------------|
Gb|--4----------------------|--4--4--6--7-----7--6----|
Db|--4-----2----------------|--4--4--6--7-----7--6----|
Ab|--2-----2----------------|--2--2--4--5-----5--4----|
Eb|--------0----------------|-------------------------|

   GTR I
eb|-------------------------|-------------------------|
Bb|-------------------------|-------------------------|
Gb|--9--9--9--9--9--9--9--9-|--9--9--9--9--9--9--9--9-|
Db|--x--x--x--x--x--x--x--x-|--x--x--x--x--x--x--x--x-|
Ab|--7--7--7--7--7--7--7--7-|--7--7--7--7--7--7--7--7-|
Eb|-------------------------|-------------------------|
  |
  |GTR II
eb|-------------------------|-------------------------|
Bb|-------------------------|-------------------------|
Gb|--4----------------------|-------------------------|
Db|--4-----2----------------|-------------------------|
Ab|--2-----2----------------|-------------------------|
Eb|--------0----------------|-------------------------|

   GTR I
eb|-------------------------|-------------------------|
Bb|-------------------------|-------------------------|
Gb|--9--9--9--9--9--9--9--9-|--5--5--5--5-----5--5----|
Db|--x--x--x--x--x--x--x--x-|--5--5--5--5-----5--5----|
Ab|--7--7--7--7--7--7--7--7-|--3--3--3--3-----3--3----|
Eb|-------------------------|-------------------------|
  |
  |GTR II
eb|-------------------------|-------------------------|
Bb|-------------------------|-------------------------|
Gb|--4----------------------|--5--5--5--5-----5--5----|
Db|--4-----2----------------|--5--5--5--5-----5--5----|
Ab|--2-----2----------------|--3--3--3--3-----3--3----|
Eb|--------0----------------|-------------------------|

   GTR I,II
eb|-------------------------|-------------------------|
Bb|-------------------------|-------------------------|
Gb|--5--5--5--5-----5--5----|--5--5--5--5-----5--5----|
Db|--5--5--5--5-----5--5----|--5--5--5--5-----5--5----|
Ab|--3--3--3--3-----3--3----|--3--3--3--3-----3--3----|
Eb|-------------------------|-------------------------|

                             Chorus 2

   GTR I,II
eb|-------------------------|-------------------------|
Bb|-------------------------|-------------------------|
Gb|--7--7--7--7--7--7--7--7-|-----------9-------------|
Db|--7--7--7--7--7--7--7--7-|--2--2--2--9--------5----|
Ab|--5--5--5--5--5--5--5--5-|--2--2--2--7--------5----|
Eb|-------------------------|--0--0--0--------0--3--0-|

   GTR I,II
eb|-------------------------|-------------------------|
Bb|-------------------------|-------------------------|
Gb|-------------------------|-----------9-------------|
Db|--5/-7--7--7-----5--5----|--2--2--2--9--------5----|
Ab|--5/-7--7--7-----5--5----|--2--2--2--7--------5----|
Eb|--3/-5--5--5-----3--3----|--0--0--0--------0--3--0-|

   GTR I,II
eb|-------------------------|-------------------------|
Bb|-------------------------|-------------------------|
Gb|-------------------------|-----------9-------------|
Db|--5/-7--7--7-----7--7----|--2--2--2--9--------5----|
Ab|--5/-7--7--7-----7--7----|--2--2--2--7--------5----|
Eb|--3/-5--5--5-----5--5----|--0--0--0--------0--3--0-|

   GTR I,II
eb|-------------------------|-------------------------|
Bb|-------------------------|-------------------------|
Gb|-------------------------|-------------------------|
Db|--5/-7--7--7-----5--5----|-------------------------|
Ab|--5/-7--7--7-----5--5----|--2-----5-----7-----8----|
Eb|--3/-5--5--5-----3--3----|--0-----3-----5-----6----|
                               .     .     .     .

   GTR I,II
eb|-------------------------|-------------------------|
Bb|-------------------------|-------------------------|
Gb|-------------------------|-----------9-------------|
Db|--------------2----------|--2--2--2--9--------5----|
Ab|--7-----5-----2----------|--2--2--2--7--------5----|
Eb|--5-----3-----0----------|--0--0--0--------0--3--0-|
     .     .

   GTR I,II
eb|-------------------------|-------------------------|
Bb|-------------------------|-------------------------|
Gb|-------------------------|-----------9-------------|
Db|--5/-7--7--7-----5--5----|--2--2--2--9--------5----|
Ab|--5/-7--7--7-----5--5----|--2--2--2--7--------5----|
Eb|--3/-5--5--5-----3--3----|--0--0--0--------0--3--0-|

   GTR I,II
eb|-------------------------|-------------------------|
Bb|-------------------------|-------------------------|
Gb|-------------------------|-----------9-------------|
Db|--5/-7--7--7-----7--7----|--2--2--2--9--------5----|
Ab|--5/-7--7--7-----7--7----|--2--2--2--7--------5----|
Eb|--3/-5--5--5-----5--5----|--0--0--0--------0--3--0-|

                             Bridge

   GTR I,II
eb|-------------------------|-------------------------|
Bb|-------------------------|-------------------------|
Gb|-------------------------|-------------------------|
Db|--5/-7--7--7-----5--5----|-------------------------|
Ab|--5/-7--7--7-----5--5----|--2-----5-----7-----8----|
Eb|--3/-5--5--5-----3--3----|--0-----3-----5-----6----|
                               .     .     .     .

   GTR I,II
eb|-------------------------|-------------------------|
Bb|-------------------------|-------------------------|
Gb|-------------------------|-------------------------|
Db|-------------------------|-------------------------|
Ab|--7-----5-----2-----5----|--7-----8-----7-----5----|
Eb|--5-----3-----0-----3----|--5-----6-----5-----3----|
     .     .     .     .       .     .     .     .

   GTR I,II
eb|-------------------------|-------------------------|
Bb|-------------------------|-------------------------|
Gb|-------------------------|-------------------------|
Db|-------------------------|-------------------------|
Ab|--2-----5-----7-----8----|--7-----5----------------|
Eb|--0-----3-----5-----6----|--5-----3-----3b----0----|
     .     .     .     .       .     .             

   GTR I,II
eb|-------------------------|-------------------------|
Bb|-------------------------|-------------------------|
Gb|--9----------------------|-------------------------|
Db|--9----------------------|-------------------------|
Ab|--7----------------------|-------------------------|
Eb|--------0--0--6--0--0--5-|--0--0--3--0--3b----0----|

   GTR I,II
eb|-------------------------|-------------------------|
Bb|-------------------------|-------------------------|
Gb|--9----------------------|-------------------------|
Db|--9----------------------|-------------------------|
Ab|--7----------------------|-------------------------|
Eb|--------0--0--6--0--0--5-|--0--0--3--0--3b----0----|

   GTR I,II
eb|-------------------------|-------------------------|
Bb|-------------------------|-------------------------|
Gb|--9----------------------|-------------------------|
Db|--9----------------------|-------------------------|
Ab|--7----------------------|-------------------------|
Eb|--------0--0--6--0--0--5-|--0--0--3--0--0-----3----|
                                                    

   GTR I,II
eb|-------------------------|-------------------------|
Bb|-------------------------|-------------------------|
Gb|-------------------------|--------------9----------|
Db|-------------------------|--------------9----------|
Ab|-------------------------|--------------7----------|
Eb|--5-----6-----5-----3----|--3b----0-----------0--0-|
                        
   GTR I,II
eb|-------------------------|-------------------------|
Bb|-------------------------|-------------------------|
Gb|-------------------------|--------------9----------|
Db|-------------------------|--------------9----------|
Ab|-------------------------|--------------7----------|
Eb|--6--0--0--5--0--0--3--0-|--3b----0-----------0--0-|

   GTR I,II
eb|-------------------------|-------------------------|
Bb|-------------------------|-------------------------|
Gb|-------------------------|--------------9----------|
Db|-------------------------|--------------9----------|
Ab|-------------------------|--------------7----------|
Eb|--6--0--0--5--0--0--3--0-|--3b----0-----------0--0-|

   GTR I,II
eb|-------------------------|-------------------------|
Bb|-------------------------|-------------------------|
Gb|-------------------------|-------------------------|
Db|-------------------------|-------------------------|
Ab|-------------------------|-------------------------|
Eb|--6--0--0--5--0--0--3--0-|--0-----3-----5-----6----|

                 Outro

   GTR I,II
eb|-------------------------|-------------------------|
Bb|-------------------------|-------------------------|
Gb|-------------------------|-------------------------|
Db|--------------5-----2----|--------------8--------7-|
Ab|--------------5-----2----|--------------8--------7-|
Eb|--5-----3-----3-----0----|--------------6--0--0--5-|
                                              .  .

   GTR I,II
eb|-------------------------|-------------------------|
Bb|-------------------------|-------------------------|
Gb|-------------------------|-------------------------|
Db|--------5-----5-----2----|--------------8--------7-|
Ab|--------5-----5-----2----|--------------8--------7-|
Eb|--0--0--3--0--3-----0----|--------------6--0--0--5-|
     .  .     .                               .  .

   GTR I,II
eb|-------------------------|-------------------------|
Bb|-------------------------|-------------------------|
Gb|-------------------------|-------------------------|
Db|--------5-----5-----2----|--------------8--------7-|
Ab|--------5-----5-----2----|--------------8--------7-|
Eb|--0--0--3--0--3-----0----|--------------6--0--0--5-|
     .  .     .                               .  .

   GTR I,II
eb|-------------------------|-------------------------|
Bb|-------------------------|-------------------------|
Gb|-------------------------|-------------------------|
Db|--------5----------------|-------------------------|
Ab|--------5-----2-----5----|--7-----8-----7-----5----|
Eb|--0--0--3--0--0-----3----|--5-----6-----5-----3----|
     .  .     .  .     .       .     .     .     .

   GTR I,II
eb|-------------------------|-------------------------|
Bb|-------------------------|-------------------------|
Gb|-------------------------|-------------------------|
Db|-------------------------|-------------------------|
Ab|--2-----5-----7-----8----|--7-----5-----2-----5----|
Eb|--0-----3-----5-----6----|--5-----3-----0-----3----|
     .     .     .     .       .     .     .     . 

   GTR I,II
eb|-------------------------|-------------------------|
Bb|-------------------------|-------------------------|
Gb|-------------------------|-------------------------|
Db|-------------------------|--2----------------------|
Ab|--7-----8-----7-----5----|--2----------------------|
Eb|--5-----6-----5-----3----|--0----------------------|
     .     .     .     .


| b  bend
| r  release bend
|trp triplet
|PH. pinch harmonic
|fbk feedback
| .  palm-mute
| /  slide up
| \  slide down
| h  hammer-on
| p  pull-off
| ~  vibrato
|(7) harmonic
| x  Mute note
===============================================================================

            
            
Suggest correction
Creating personal tab
Creating personal tab
You can edit any tab online and save it as your Personal.

You can edit, replace or remove any tab part or add personal notes – all changes will be seen only by you.

Personal tabs can be accessed anytime from any device, even offline.
Learn more »
Give kudos to tab author, rate the tab!
1 2 3 4 5
comments
print report bad tab
1 comment total.
0 reply
ksmit 30 Jan 06, 2015 08:27 PM

didn't like this contribution

guest
You may want to rate the tab now too:
select rating
Wanna post a correction for this tab? Suggest correction