Oops, an error
Loading. Please wait.

Survive Tab

version 2
version 2

Whole song

Interactive

74,500 views 27 this week
13 commentsread comments
1 2 3 4 5
excellent!
x 28
add to favorites
launch autoscroll
font size
0
reset
how to read this tab
guitar tuner
Tab Pro tools
  • play this tab
  • loop segment
  • change instrument
  • show fretboard
  • metronome
×
Best way to learn
"Survive"
Autoscroll
slow
fast
+/-
esc
set tempo
stop
Contributor
Difficulty
intermediate
Artist : Rise Against
Song : Survive
Album : The Sufferer & The Witness
Tuning : Standard
Tabbed By : Aaron Kunde

. = Palm Muted
^ = let ring out
/ = slide down
( ) = harmonics

Intro ( Lead )
|---1---3-----1---3---|x13|-1-|
|-1---1-----1---1---4-|   |-1-|
|---------------------|   |---|
|---------------------|   |---|
|---------------------|   |---|
|---------------------|   |---|
                            ^

( rhythm )
|-----------------------------------------------------------------|x4
|-----------------------------------------------------------------|
|-----------------------------------------------------------------|
|-5-5-5-5-5-5-5-5-------------------------------------------------|
|-3-3-3-3-3-3-3-3-6-6-6-6-6-6-6-6-8-8-8-8-8-8-8-8-3-3-3-3-3-3-3-3-|
|-----------------4-4-4-4-4-4-4-4-6-6-6-6-6-6-6-6-1-1-1-1-1-1-1-1-|
  . . . . . . . . . . . . . . . . . . . . . . . . . . . . . . . . 

Verse 1 ( lead )                                        ( both )
|---------------------------------------------|---------------------------------------------------------|
|-------4-4-43------4-4-43------4-4-43------4-|---------------------------------------------------------|
|-------3-3-33------3-3-33------3-3-33------3-|---------------------------------------------------------|
|-5-5555------5-5555--------------------------|-3-3333-3-3-33-------------------------------------------|
|-3-3333------3-3333------6-6666------6-6666--|-1-1111-1-1-11-3-3333-3-3-33-6-6666-6-6-66-8-8888-8-8-88-|
|-------------------------4-4444------4-4444--|---------------1-1111-1-1-11-4-4444-4-4-44-6-6666-6-6-66-|
    ....        ....        ....        ....      ....          ....          ....          ....

( rhythm )
|-----------------------------------------------------------------------------------------------------------------|
|-----------------------------------------------------------------------------------------------------------------|
|-----------------------------------------------------------------------------------------------------------------|
|-5-5555-5-5-55-5-5555-5-5-55-----------------------------3-3333-3-3-33-------------------------------------------|
|-3-3333-3-3-33-3-3333-3-3-33-6-6666-6-6-66-6-6666-6-6-66-1-1111-1-1-11-3-3333-3-3-33-6-6666-6-6-66-8-8888-8-8-88-|
|-----------------------------4-4444-4-4-44-4-4444-4-4-44---------------1-1111-1-1-11-4-4444-4-4-44-6-6666-6-6-66-|
    ....          ....          ....          ....          ....          ....          ....          ....

|---------------------------------------------------------------------------------------------------------|
|---------------------------------------------------------------------------------------------------------|
|---------------------------------------------------------------------------------------------------------|
|-5-5555-5-5-55-5-5555-5-5-55-----------------------------3-3333-3-3-33-----------------------------------|
|-3-3333-3-3-33-3-3333-3-3-33-6-6666-6-6-66-6-6666-6-6-66-1-1111-1-1-11-3-3333-3-3-33-6-6666-6-6-66-8-8-8-|
|-----------------------------4-4444-4-4-44-4-4444-4-4-44---------------1-1111-1-1-11-4-4444-4-4-44-6-6-6-|
    ....          ....          ....          ....          ....          ....          ....         

( lead )
|------------------------------------|
|-4-3--4-3--4-3--6-4-3-4-3--4-3------|
|----3----3----3----------3----3-3-5-|
|------------------------------------|
|------------------------------------|
|------------------------------------|

Chorus ( both guitars )
|-------------------------------------------------------------------------------------------|
|-------------------------------------------------------------------------------------------|
|-------------------------------------------------------------------------------------------|
|-----------888----------------------------------------------888----------------------------|
|-10--------666-8--------555-6--------8--------555-10--------666-8--------555-6-------555-8-|
|-8-------------6--------333-4--------6--------333-8-------------6--------333-4-------333-6-|
  ^             ^            ^        ^            ^             ^            ^           ^

Fill ( rhythm )
|---------------------------------------------------|
|---------------------------------------------------|
|---------------------------------------------------|
|-----------------------------------------------3---|
|-5556----------5556----8---5556/-------5556----1-5-|
|-3334----------3334----6---3334/-------3334------3-|

( lead )
|------|x14|-----|
|-3-4--|   |-----|
|--3-3-|   |-----|
|------|   |-3---|
|------|   |-1-5-|
|------|   |---3-|

Verse 2
( rhythm )
|-----------------------------------------------------------------------------------------------------------------|
|-----------------------------------------------------------------------------------------------------------------|
|-----------------------------------------------------------------------------------------------------------------|
|-5-5555-5-5-55-5-5555-5-5-55-----------------------------3-3333-3-3-33-------------------------------------------|
|-3-3333-3-3-33-3-3333-3-3-33-6-6666-6-6-66-6-6666-6-6-66-1-1111-1-1-11-3-3333-3-3-33-6-6666-6-6-66-8-8888-8-8-88-|
|-----------------------------4-4444-4-4-44-4-4444-4-4-44---------------1-1111-1-1-11-4-4444-4-4-44-6-6666-6-6-66-|
    ....          ....          ....          ....          ....          ....          ....          ....

|------------------------------------------------------------------------------------------------------|
|------------------------------------------------------------------------------------------------------|
|------------------------------------------------------------------------------------------------------|
|-5-5555-5-5-55-5-5555-5-5-55-----------------------------3-3333-3-3-33--------------------------------|
|-3-3333-3-3-33-3-3333-3-3-33-6-6666-6-6-66-6-6666-6-6-66-1-1111-1-1-11-3-3333-3-3-33-6-6666-6-6-66-8--|
|-----------------------------4-4444-4-4-44-4-4444-4-4-44---------------1-1111-1-1-11-4-4444-4-4-44-6--|
    ....          ....          ....          ....          ....          ....          ....         

( lead )
|------------------------------------|
|-4-3--4-3--4-3--6-4-3-4-3--4-3------|
|----3----3----3----------3----3-3-5-|
|------------------------------------|
|------------------------------------|
|------------------------------------|

|-------------------|
|-------------------|
|-------------------|
|-------------------|
|-8888888888888-555-|
|-6666666666666-333-|
  .............

Chorus ( both guitars )
|-------------------------------------------------------------------------------------------|
|-------------------------------------------------------------------------------------------|
|-------------------------------------------------------------------------------------------|
|-----------888----------------------------------------------888----------------------------|
|-10--------666-8--------555-6--------8--------555-10--------666-8--------555-6-------555-8-|
|-8-------------6--------333-4--------6--------333-8-------------6--------333-4-------333-6-|
  ^             ^            ^        ^            ^             ^            ^           ^

Fill ( rhythm )
|------------------------------------------------------|
|------------------------------------------------------|
|------------------------------------------------------|
|-----------------------------------------------3---55-|
|-5556----------5556----8---5556/-------5556----1-5-33-|
|-3334----------3334----6---3334/-------3334------3-33-|

( lead )
|------|x14|--------|
|-3-4--|   |--------|
|--3-3-|   |--------|
|------|   |-3---55-|
|------|   |-1-5-33-|
|------|   |---3-33-|

Interlude ( rhythm )
|--------------------------------------------------------------------------
|--------------------------------------------------------------------------
|--------------------------------------------------------------------------
|-3-55----------3-55----------3-55-----------3-55-----------3-55-----------
|-1-33----------1-33----------1-33-----------1-33-----------1-33-----------
|-1-33(3)-------1-33----------1-33-----------1-33-----------1-33-----------

-------------------------------------------------------|
-------------------------------------------------------|
-------------------------------------------------------|
--3-55----------3-55----------3-55----------5----------|
--1-33----------1-33----------1-33----------3-66--6-88-|
--1-33----------1-33----------1-33----------3-44--4-66-|

|-----------------------------------------------------------------|x3
|-----------------------------------------------------------------|
|-----------------------------------------------------------------|
|-5-5-5-5-5-5-5-5-------------------------------------------------|
|-3-3-3-3-3-3-3-3-6-6-6-6-6-6-6-6-8-8-8-8-8-8-8-8-3-3-3-3-3-3-3-3-|
|-----------------4-4-4-4-4-4-4-4-6-6-6-6-6-6-6-6-1-1-1-1-1-1-1-1-|

|--------------------------------------------------------|
|--------------------------------------------------------|
|--------------------------------------------------------|
|-5-5-5-5-5-5-5-5----------------------------------------|
|-3-3-3-3-3-3-3-3-6-6-6-6-6-6-6-6-8-8-8-8-8-8-8-8--8-8-8-|
|-----------------4-4-4-4-4-4-4-4-6-6-6-6-6-6-6-6--6-6-6-|
( lead )
|---1---3-----1---3---|x11|---1---3-|-------|
|-1---1-----1---1---4-|   |-1---1---|-------|
|---------------------|   |---------|-------|
|---------------------|   |---------|-------|
|---------------------|   |---------|-8-8-8-|
|---------------------|   |---------|-6-6-6-|

|---------------------------------------------------------------------------------------|x4
|---------------------------------------------------------------------------------------|
|---------------------------------------------------------------------------------------|
|----------------------------888--------------------------------------------------------|
|-10101010101010101010101010-666-8888888888888-555-6666666666666666-888888888888888-555-|
|-8-8-8-8-8-8-8-8-8-8-8-8-8------6666666666666-333-4444444444444444-666666666666666-333-|

|---|
|---|
|---|
|-5-|
|-3-|
|---|
  ^
comments
print report bad tab
13 comments total. Showing first comments.
0 reply
g_tab_man wrote on August 1 2007, 06:48 pm

YO! love the song. good job.

-1 reply
madmetalmike wrote on December 22 2007, 01:19 pm

one correct to make i think out of the entire song, it was in the lead of the chorus it should start with the 3rd fret
of 3rd string then continue the pattern u have

so like:

--
--
---4-3-4
--3-3-3-3
--
--

0 reply
doofus41 wrote on April 10 2008, 06:56 pm

next time try to have only one chord instead of two for identical sounds like the C5 at the 3rd fret A string and the C5 at the 8th fret E string. just a thought to be more consistent

I want to post or [tab]
guest
You may want to rate the tab now too:
select rating
Please do not post tabs as comments. Select "correction" instead!