Oops, an error
Loading. Please wait.
We have an official Survive tab made by UG professional guitarists. Check out the tab »
×
259 views 1 this week
no commentswrite comment
1 2 3 4 5
3 more votes to show rating
add to favorites
×
Save as Personal and add changes to this tab that will be seen only by you. Learn more ›
×
You can save this tab as Personal to edit and correct it or add notes. All changes will be seen only by you. Learn more »
launch autoscroll
font size
0
reset
how to read this tab
guitar tuner
edit
Autoscroll
slow
fast
+/-
esc
set tempo
stop
About this tab version
This a improvisational guitar cover. Was this info helpful? Yes No
-------------------------------------------------------------------------------
                             Survive - Rise Against
-------------------------------------------------------------------------------
Tabbed by: andrewheher
E-mail: andrewheher@gmail.com

Tuning: Half-Step Down

-intro (right during the opening bass)
e|----2---4-----2---4----|
B|--2---2-----2---2---4--|
G|-----------------------| (x4)
D|-----------------------|
A|-----------------------|
E|-----------------------|
-then switch to this (all chords are PALM-MUTED)
e|-------------------------------------------|
B|-------------------------------------------|
G|--66666666---------------------------------| (x4)
D|--66666666--77777777--99999999--44444444---|
A|--44444444--77777777--99999999--44444444---|
E|------------55555555--77777777--22222222---|
    ........  ........  ........  ........
-let this bar chord ring, then switch quickly to these notes and play quietly
e|------------------------|
B|------------------------|
G|--6+--------------------|
D|--6+--------------------|
A|--4+----0+----6-7-6--4+-|
E|------------------------|
-official intro: play this part with a quick strum/palm-mute combo (listen to interpret)
e|--------------------------------------------------|
B|--------------------------------------------------|
G|---8-8888--89-89------8-8888--89-89----8888--89---|
D|-----------------(x2)-9-9999--9--9-----9999--9----|
A|---9-9999--9--9-----------------------------------|
E|---x-xxxx--x--x---------xxxx--x--x-----xxxx--x----|
       ....               ....           ....
-this is where the lead guitar comes in (PLAY THIS WITH THE SAME STRUM/PALM-MUTE PATTERN)
e|---------------|
B|---------------|
G|--4-----2--4---|
D|--4--4--2--4---|
A|--2--4--0--2---|
E|-----2---------|

-Verse: same strummiing pattern as before 
e|---------------------------------------------------------------------------|
B|---------------------------------------------------------------------------|
G|--6--2--4-----2--4----\9-8---/7\9-8---/7\9-8---11-9-8/7\9-8---/7\9-8-------|
D|--6--2--4--4--2--4---------9--------9--------9--------------9--------9--11-|
A|--4--0--2--4--0--2---------------------------------------------------------|
E|-----------2---------------------------------------------------------------|

-Chorus:this is played with a different kind of strumming. Listen to the song for rhythm
e|---------------------------------------------------------------------------|
B|---------------------------------------------------------------------------|
G|-----6--9--4-----2-----4-----right after the last note on the 2nd time, end with
D|--6+-6--9--4--4--2--2--4--(x2)------------6-7------------------------------|
A|--6+-4--7--2--4--0--2--2------------------6-7------------------------------|
E|--4+----------2-----0---------------------4-5------------------------------|

-Post-Chorus:  
e|---------------------------------------------------------------------------|
B|--5-0-4-0-5-0-4-0-------5-0-4-0-5-0-4-0---------5-0-4-0-5-0-4-0-------5-0-4-0-5-0-4-0-------|
G|--------------------------------------------------------------------------------------------|
D|------------------666-7-----------------9--6--7-----------------666-7-----------------9-6---|
A|------------------666-7-----------------9--6--7-----------------666-7-----------------9-6---|
E|------------------444-5-----------------7--4--5-----------------444-5-----------------7-4---|
  
-REPEAT VERSE

-Right before you go to the chorus (palm-muted)  
e|--------------------|
B|--------------------|
G|--4444444444444-----|
D|--4444444444444-----|
A|--2222222222222-----|
E|--------------------|
    .............

-REPEAT CHORUS

-REPEAT POST-CHORUS

e|--------------|
B|--------------|
G|-----------66-|
D|--9----6---66-|
A|--9----6---44-|
E|--7----4------|

-Interlude (listen for the right timing)There is a riff in this part but I can't figure it out.
If anyone can help me out with it, I'll be sure to add on! :)

e|-----------------------------------------|
B|-----------------------------------------|
G|--4--66-----8-99-----4--66-----8-99------|
D|--4--66-(x3)----(x3)-4--66-(x3)-----(x2)-|
A|--2--44-----6-77-----2--44-----6-77------|
E|-----------------------------------------|

-Bridge: play 4 times, on the 4th chord on the 4th repetition, play these last 4 chords below.
e|-------------------------------------------------|
B|-------------------------------------------------|
G|--6--------2--------4-------------------------6--| 
D|--6-(x8)---2-(x8)---4-(x8)--4---------4--4--6-6--|
A|--4--------0--------2-------4-(x8)----4--4--6-4--|
E|----------------------------2---------2--2--4----|

- REPEAT CHORUS

-Ending: play octave chords close to the end (those are 11s not 1s)Play the whole thing twice
e|---------------------------------------------|
B|---------------------------------------------|
G|--666/777/11111\666--------8h9-------8-------| 
D|--------------------(x3)---9---(x5)--9-(x5)--| x2
A|--444/777/999\444----------------------------|
E|---------------------------------------------|

-Right after you play the above section twice, quickly 

e|---------------------------------------------------------------------------|
B|---------------------------------------------------------------------------|
G|--666-6+-------------------------------------------------------------------| 
D|--666-6+-------------------------------------------------------------------|
A|--666-4+-------------------------------------------------------------------|
E|--444----------------------------------------------------------------------|

That pretty much covers it! If you guys could tell me what the riff notes are for the interlude,
I would greatly appreciate it! Thanks and I hope you enjoy these tabs!



************************************

| /   slide up
| \   slide down
| h   hold
| +   harmonic
| x   Mute note

************************************

            
            
Suggest correction
Creating personal tab
Creating personal tab
You can edit any tab online and save it as your Personal.

You can edit, replace or remove any tab part or add personal notes – all changes will be seen only by you.

Personal tabs can be accessed anytime from any device, even offline.
Learn more »
Give kudos to tab author, rate the tab!
1 2 3 4 5
comments
print report bad tab
guest
You may want to rate the tab now too:
select rating
Wanna post a correction for this tab? Suggest correction