Oops, an error
Loading. Please wait.

Swing Life Away Tab

version 5
731,483 views 249 this week
68 commentsread comments
1 2 3 4 5
x 187
add to favorites
launch autoscroll
font size
0
reset
how to read this tab
guitar tuner
Autoscroll
slow
fast
+/-
esc
set tempo
stop
Help us to improve Ultimate-Guitar.com Take our survey!
×
Author
Tuning
D# G# C# F# A# D#
22.06.2008 - I knew there would be some mistakes. Fixed the thing in the interlude.

05.04.2008 - I finally got control of this tab, and i've fixed some things that we're 
me. It should be almost completely perfect now (although i thought it was last time so who knows)

Tuned down half a step Eb Ab Db Gb Bb Eb

[Intro]

  Guitar 1
                               v     v   ^ v   ^    v     v   ^ v   ^
D#|------------|------------|---------------------|--------------------|
A#|--0---------|------------|--------3---3-3---3--|-3-----3---3-3---3--|
F#|------0-----|--2---0-----|--0-----0---0-0---0--|-0-----0---0-0---0--|
C#|----------0-|----------4-|--X-----X---X-X---X--|-X-----X---X-X---X--|
G#|------------|------------|--3-----3---3-3---3--|-3-----3---3-3---3--|
D#|--0---------|--3---------|---------------------|--------------------|
   1   2   3    1   2   3    1 + + 2 + + 3 + +    1 + + 2 + + 3 + +

                               v     v   ^ v   ^    v     v   ^ v   ^
D#|------------|------------|---------------------|--------------------|
A#|--0---------|------------|--------3---3-3---3--|-3-----3---3-3---3--|
F#|------0-----|--2---0-----|--0-----0---0-0---0--|-0-----0---0-0---0--|
C#|----------0-|----------4-|--X-----X---X-X---X--|-X-----X---X-X---X--|
G#|------------|------------|--3-----3---3-3---3--|-3-----3---3-3---3--|
D#|--0---------|--3---------|---------------------|--------------------|
   1   2   3    1   2   3    1 + + 2 + + 3 + +    1 + + 2 + + 3 + +

                               v     v   ^ v   ^    v     v   ^ v   ^
D#|------------|------------|---------------------|--------------------|
A#|--0---------|------------|--------3---3-3---3--|-3-----3---3-3---3--|
F#|------0-----|--2---0-----|--0-----0---0-0---0--|-0-----0---0-0---0--|
C#|----------0-|----------4-|--X-----X---X-X---X--|-X-----X---X-X---X--|
G#|------------|------------|--3-----3---3-3---3--|-3-----3---3-3---3--|
D#|--0---------|--3---------|---------------------|--------------------|
   1   2   3    1   2   3    1 + + 2 + + 3 + +    1 + + 2 + + 3 + +

    v     v   ^ v   ^   v     v   ^ v   ^   v
D#|-------------------|-------------------|------------|------------|
A#|-3-----3---3-3---3-|-3-----3---3-3---3-|-3----------|------------|
F#|-2-----2---2-2---2-|-2-----2---2-2---2-|-2----------|------------|
C#|-0-----0---0-0---0-|-0-----0---0-0---0-|-0----------|------------|
G#|-0-----0---0-0---0-|-0-----0---0-0---0-|-0----------|------------|
D#|-------------------|-------------------|------------|------------|
  1 + + 2 + + 3 + +   1 + + 2 + + 3 + +   1   2   3     1   2   3

Guitar 2

D#|--------------------------------------------------|
A#|-(12)----------------(7)--------------------------|
F#|-----(12)--------(12)----(7)----------------------|
C#|---------(12)(7)----------------------------------|
G#|--------------------------------------------------|
D#|--------------------------------------------------|
   1   2   3   1   2   3   1   2   3   1   2   3

D#|--------------------------------------------------|
A#|-(12)----------------(7)--------------------------|
F#|-----(12)--------(12)----(7)----------------------|
C#|---------(12)(7)----------------------------------|
G#|--------------------------------------------------|
D#|--------------------------------------------------|
   1   2   3   1   2   3   1   2   3   1   2   3

D#|--------------------------------------------------|
A#|-(12)----------------(7)--------------------------|
F#|-----(12)--------(12)----(7)----------------------|
C#|---------(12)(7)----------------------------------|
G#|--------------------------------------------------|
D#|--------------------------------------------------|
   1   2   3   1   2   3   1   2   3   1   2   3

D#|--------------------------------------------------|
A#|-(7)----------------------------------------------|
F#|-------------(5)---------(7)----------------------|
C#|--------------------------------------------------|
G#|--------------------------------------------------|
D#|--------------------------------------------------|
   1   2   3   1   2   3   1   2   3   1   2   3


[Verse]

     V       v   ^   v   ^    v       v   ^   v   ^
D#|-------------------------|-------------------------|
A#|-------------------------|-------------------------|
F#|-------------------------|-------------------------|
C#|--------------2-------0--|-------------5-------0---|
G#|--2-------2---2---2---0--|-5-------5---5---5---0---|
D#|--0-------0---0---0---0--|-3-------3---3---3---0---|
   1   +   2   +   3   +    1   +   2   +   3   +
   .       .       .        .       .       .

     V       v   ^   v   ^    v       v   ^   v   ^
D#|-------------------------|------------------------|
A#|-------------------------|------------------------|
F#|--------------5-------5--|-------------5-------0--|
C#|--5-------5---5---5---5--|-5-------5---5---5---0--|
G#|--3-------3---3---3---3--|-3-------3---3---3---0--|
D#|-------------------------|------------------------|
   1   +   2   +   3   +    1   +   2   +   3   +
   .       .       .        .       .       .

     V       v   ^   v   ^    v       v   ^   v   ^
D#|-------------------------|-------------------------|
A#|-------------------------|-------------------------|
F#|-------------------------|-------------------------|
C#|--------------2-------0--|-------------5-------0---|
G#|--2-------2---2---2---0--|-5-------5---5---5---0---|
D#|--0-------0---0---0---0--|-3-------3---3---3---0---|
   1   +   2   +   3   +    1   +   2   +   3   +
   .       .       .        .       .       .

     V       v   ^   v   ^    v       v   ^   v   ^
D#|-------------------------|------------------------|
A#|-------------------------|------------------------|
F#|--------------5-------5--|-------------5-------0--|
C#|--5-------5---5---5---5--|-5-------5---5---5---0--|
G#|--3-------3---3---3---3--|-3-------3---3---3---0--|
D#|-------------------------|------------------------|
   1   +   2   +   3   +    1   +   2   +   3   +
   .       .       .        .       .       .

     V       v   ^   v   ^    v       v   ^   v   ^
D#|-------------------------|-------------------------|
A#|-------------------------|-------------------------|
F#|-------------------------|-------------------------|
C#|--------------2-------0--|-------------5-------0---|
G#|--2-------2---2---2---0--|-5-------5---5---5---0---|
D#|--0-------0---0---0---0--|-3-------3---3---3---0---|
   1   +   2   +   3   +    1   +   2   +   3   +
   .       .       .        .       .       .

     V       v   ^   v   ^    v       v   ^   v   ^
D#|-------------------------|------------------------|
A#|-------------------------|------------------------|
F#|--------------5-------5--|-------------5-------0--|
C#|--5-------5---5---5---5--|-5-------5---5---5---0--|
G#|--3-------3---3---3---3--|-3-------3---3---3---0--|
D#|-------------------------|------------------------|
   1   +   2   +   3   +    1   +   2   +   3   +
   .       .       .        .       .       .

     V       v   ^   v   ^    v       v   ^   v   ^
D#|-------------------------|------------------------|
A#|----------3---3---3---3--|---------3---3---3---3--|
F#|----------0---0---0---0--|---------0---0---0---0--|
C#|--4-------4---4---4---4--|-4-------4---4---4---4--|
G#|--5-------5---5---5---5--|-5-------5---5---5---5--|
D#|-------------------------|------------------------|
   1   +   2   +   3   +    1   +   2   +   3   +
   .       .       .        .       .       .

     V       v   ^   v   ^    v
D#|-------------------------|------------------------|
A#|----------3---3---3---3--|-3----------------------|
F#|----------0---0---0---0--|-0----------------------|
C#|--4-------4---4---4---4--|-4----------------------|
G#|--5-------5---5---5---5--|-5----------------------|
D#|-------------------------|------------------------|
   1   +   2   +   3   +    1   +   2   +   3   +

[Chorus]


Guitar One

D#|-------------------------|-------------------------|
A#|---------8---7---8-------|-8-------8---8---8---8---|
F#|---------0---0---0-------|-7-------7---7---7---7---|
C#|---------X---X---X-------|-0-------0---0---0---0---|
G#|-7-------7---7---7-------|-X-------X---X---X---X---|
D#|-0-------0---0---0-------|-8-------8---8---8---8---|
  1   +   2   +   3   +     1   +   2   +   3   +

D#|-------------------------|-------------------------|
A#|-3-------3---3---3---3---|-3-------3---3---3---3---|
F#|-0-------0---0---0---0---|-2-------2---2---2---2---|
C#|-0-------0---0---0---0---|-0-------0---0---0---0---|
G#|-X-------X---X---X---X---|-0-------0---0---0---0---|
D#|-3-------3---3---3---3---|-------------------------|
  1   +   2   +   3   +     1   +   2   +   3   +

D#|-------------------------|-------------------------|
A#|---------8---7---8-------|-8-------8---8---8---8---|
F#|---------0---0---0-------|-7-------7---7---7---7---|
C#|---------X---X---X-------|-0-------0---0---0---0---|
G#|-7-------7---7---7-------|-X-------X---X---X---X---|
D#|-0-------0---0---0-------|-8-------8---8---8---8---|
  1   +   2   +   3   +     1   +   2   +   3   +

D#|-------------------------|-------------------------|
A#|-3-------3---3---3---3---|-3-------3---3---3---3---|
F#|-2-------2---2---2---2---|-2-------2---2---2---2---|
C#|-0-------0---0---0---0---|-0-------0---0---0---0---|
G#|-0-------0---0---0---0---|-0-------0---0---0---0---|
D#|-------------------------|-------------------------|
  1   +   2   +   3   +     1   +   2   +   3   +

D#|-------------------------|-------------------------|
A#|---------8---7---8-------|-8-------8---8---8---8---|
F#|---------0---0---0-------|-7-------7---7---7---7---|
C#|---------X---X---X-------|-0-------0---0---0---0---|
G#|-7-------7---7---7-------|-X-------X---X---X---X---|
D#|-0-------0---0---0-------|-8-------8---8---8---8---|
  1   +   2   +   3   +     1   +   2   +   3   +

D#|-------------------------|-------------------------|
A#|-3-------3---3---3---3---|-3-------3---3---3---3---|
F#|-0-------0---0---0---0---|-2-------2---2---2---2---|
C#|-0-------0---0---0---0---|-0-------0---0---0---0---|
G#|-X-------X---X---X---X---|-0-------0---0---0---0---|
D#|-3-------3---3---3---3---|-------------------------|
  1   +   2   +   3   +     1   +   2   +   3   +

D#|-------------------------|-------------------------|
A#|---------8---7---8-------|-8-------8---8---8---8---|
F#|---------0---0---0-------|-7-------7---7---7---7---|
C#|---------X---X---X-------|-0-------0---0---0---0---|
G#|-7-------7---7---7-------|-X-------X---X---X---X---|
D#|-0-------0---0---0-------|-8-------8---8---8---8---|
  1   +   2   +   3   +     1   +   2   +   3   +

D#|-------------------------|-------------------------|
A#|-3-------3---3---3---3---|-3-------3---3---3---3---|
F#|-0-------0---0---0---0---|-2-------2---2---2---2---|
C#|-0-------0---0---0---0---|-0-------0---0---0---0---|
G#|-X-------X---X---X---X---|-0-------0---0---0---0---|
D#|-3-------3---3---3---3---|-------------------------|
  1   +   2   +   3   +     1   +   2   +   3   +

D#|-------------------------|-------------------------|
A#|-3-------3---3---3---3---|-3-----------------------|
F#|-2-------2---2---2---2---|-2-----------------------|
C#|-0-------0---0---0---0---|-0-----------------------|
G#|-0-------0---0---0---0---|-0-----------------------|
D#|-------------------------|-------------------------|
  1   +   2   +   3   +     1   +   2   +   3   +

Guitar 2

D#|-0-------0---0---0---0---|-------------------------|
A#|-0-------0---0---0---0---|-3-------3---3---3---3---|
F#|-0-------0---0---0---0---|-0-------0---0---0---0---|
C#|-2-------2---2---2---2---|-X-------X---X---X---X---|
G#|-2-------2---2---2---2---|-3-------3---3---3---3---|
D#|-0-------0---0---0---0---|-------------------------|
  1   +   2   +   3   +     1   +   2   +   3   +

D#|-------------------------|-------------------------|
A#|-3-------3---3---3---3---|-3-------3---3---3---3---|
F#|-0-------0---0---0---0---|-2-------2---2---2---2---|
C#|-0-------0---0---0---0---|-0-------0---0---0---0---|
G#|-X-------X---X---X---X---|-0-------0---0---0---0---|
D#|-3-------3---3---3---3---|-------------------------|
  1   +   2   +   3   +     1   +   2   +   3   +

D#|-0-------0---0---0---0---|-------------------------|
A#|-0-------0---0---0---0---|-3-------3---3---3---3---|
F#|-0-------0---0---0---0---|-0-------0---0---0---0---|
C#|-2-------2---2---2---2---|-X-------X---X---X---X---|
G#|-2-------2---2---2---2---|-3-------3---3---3---3---|
D#|-0-------0---0---0---0---|-------------------------|
  1   +   2   +   3   +     1   +   2   +   3   +

D#|-------------------------|-------------------------|
A#|-3-------3---3---3---3---|-3-------3---3---3---3---|
F#|-2-------2---2---2---2---|-2-------2---2---2---2---|
C#|-0-------0---0---0---0---|-0-------0---0---0---0---|
G#|-0-------0---0---0---0---|-0-------0---0---0---0---|
D#|-------------------------|-------------------------|
  1   +   2   +   3   +     1   +   2   +   3   +

D#|-0-------0---0---0---0---|-------------------------|
A#|-0-------0---0---0---0---|-3-------3---3---3---3---|
F#|-0-------0---0---0---0---|-0-------0---0---0---0---|
C#|-2-------2---2---2---2---|-X-------X---X---X---X---|
G#|-2-------2---2---2---2---|-3-------3---3---3---3---|
D#|-0-------0---0---0---0---|-------------------------|
  1   +   2   +   3   +     1   +   2   +   3   +

D#|-------------------------|-------------------------|
A#|-3-------3---3---3---3---|-3-------3---3---3---3---|
F#|-0-------0---0---0---0---|-2-------2---2---2---2---|
C#|-0-------0---0---0---0---|-0-------0---0---0---0---|
G#|-X-------X---X---X---X---|-0-------0---0---0---0---|
D#|-3-------3---3---3---3---|-------------------------|
  1   +   2   +   3   +     1   +   2   +   3   +

D#|-0-------0---0---0---0---|-------------------------|
A#|-0-------0---0---0---0---|-3-------3---3---3---3---|
F#|-0-------0---0---0---0---|-0-------0---0---0---0---|
C#|-2-------2---2---2---2---|-X-------X---X---X---X---|
G#|-2-------2---2---2---2---|-3-------3---3---3---3---|
D#|-0-------0---0---0---0---|-------------------------|
  1   +   2   +   3   +     1   +   2   +   3   +

D#|-------------------------|-------------------------|
A#|-3-------3---3---3---3---|-3-------3---3---3---3---|
F#|-0-------0---0---0---0---|-2-------2---2---2---2---|
C#|-0-------0---0---0---0---|-0-------0---0---0---0---|
G#|-x-------x---x---x---x---|-0-------0---0---0---0---|
D#|-3-------3---3---3---3---|-------------------------|
  1   +   2   +   3   +     1   +   2   +   3   +

D#|-------------------------|-------------------------|
A#|-3-------3---3---3---3---|-3-----------------------|
F#|-2-------2---2---2---2---|-2-----------------------|
C#|-0-------0---0---0---0---|-0-----------------------|
G#|-0-------0---0---0---0---|-0-----------------------|
D#|-------------------------|-------------------------|
  1   +   2   +   3   +     1   +   2   +   3   +

[Interlude]

Guitar 1

D#|-------------------------|-------------------------|
A#|-8-------7-------0-------|-3-------3---3---3---3---|
F#|-0-------0-------0-------|-0-------0---0---0---0---|
C#|-X-----------------------|-0-------0---0---0---0---|
G#|-7-----------------------|-X-----------------------|
D#|-0-----------------------|-3-----------------------|
  1   +   2   +   3   +     1   +   2   +   3   +

D#|-------------------------|-------------------------|
A#|-5-------3---------------|---------3---3---3---3---|
F#|-0-------0-------5-------|-4-------0---0---0---0---|
C#|-X-----------------------|-X-------0---0---0---0---|
G#|-3-----------------------|-X-----------------------|
D#|-------------------------|-3-----------------------|
  1   +   2   +   3   +     1   +   2   +   3   +

D#|-------------------------|-------------------------|
A#|-5-------3---------------|---------3---3---3---3---|
F#|-0-------0-------5-------|-4-------0---0---0---0---|
C#|-X-----------------------|-X-------0---0---0---0---|
G#|-3-----------------------|-X-----------------------|
D#|-------------------------|-3-----------------------|
  1   +   2   +   3   +     1   +   2   +   3   +

D#|-------------------------|-------------------------|
A#|-------------------------|-3-------3---3---3---3---|
F#|-------------------------|-2-------2---2---2---2---|
C#|-2-------4-------5-------|-0-------0---0---0---0---|
G#|-0-------0-------0-------|-------------------------|
D#|-------------------------|-------------------------|
  1   +   2   +   3   +     1   +   2   +   3   +

D#|-------------------------|-------------------------|
A#|-8-------7-------0-------|-3-------3---3---3---3---|
F#|-0-------0-------0-------|-0-------0---0---0---0---|
C#|-X-----------------------|-0-------0---0---0---0---|
G#|-7-----------------------|-X-----------------------|
D#|-0-----------------------|-3-----------------------|
  1   +   2   +   3   +     1   +   2   +   3   +

D#|-------------------------|-------------------------|
A#|-5-------3---------------|---------3---3---3---3---|
F#|-0-------0-------5-------|-4-------0---0---0---0---|
C#|-X-----------------------|-X-------0---0---0---0---|
G#|-3-----------------------|-X-----------------------|
D#|-------------------------|-3-----------------------|
  1   +   2   +   3   +     1   +   2   +   3   +

D#|-------------------------|-------------------------|
A#|-5-------3---------------|---------3---3---3---3---|
F#|-0-------0-------5-------|-4-------0---0---0---0---|
C#|-X-----------------------|-X-------0---0---0---0---|
G#|-3-----------------------|-X-----------------------|
D#|-------------------------|-3-----------------------|
  1   +   2   +   3   +     1   +   2   +   3   +

D#|-------------------------|-------------------------|
A#|-------------------------|-------------------------|
F#|-------------------------|-------------------------|
C#|-2-------2---2---2---2---|-5-------5---5---5---5---|
G#|-0-------0---0---0---0---|-0-------0---0---0---0---|
D#|-------------------------|-------------------------|
  1   +   2   +   3   +     1   +   2   +   3   +

D#|-------------------------|-------------------------|
A#|-------------------------|-------------------------|
F#|-------------------------|-------------------------|
C#|-7-------7---7---7---7---|-4-------4---4---4---4---|
G#|-0-------0---0---0---0---|-0-------0---0---0---0---|
D#|-------------------------|-------------------------|
  1   +   2   +   3   +     1   +   2   +   3   +

D#|-------------------------|-------------------------|
A#|-3-------3---3---3---3---|-3-------3---3---3---3---|
F#|-0-------0---0---0---0---|-0-------0---0---0---0---|
C#|-X-------X---X---X---X---|-X-------X---X---X---X---|
G#|-3-------3---3---3---3---|-3-------3---3---3---3---|
D#|-------------------------|-------------------------|
  1   +   2   +   3   +     1   +   2   +   3   +

D#|-------------------------|-------------------------|
A#|-3-----------------------|-------------------------|
F#|-0-----------------------|-------------------------|
C#|-X-----------------------|-------------------------|
G#|-3-----------------------|-------------------------|
D#|-------------------------|-------------------------|
  1   +   2   +   3   +     1   +   2   +   3   +

Guitar 2 - (Harmonics Right Channel)

D#|-------------|-------------|-------------|-------------|
A#|(12)---------|-------------|-------------|-------------|
F#|------(12)---|-------------|-------------|-------------|
C#|-------------|-------------|-------------|-------------|
G#|-------------|-------------|-------------|-------------|
D#|-------------|-------------|-------------|-------------|
  1 + 2 + 3 +   1 + 2 + 3 +   1 + 2 + 3 +   1 + 2 + 3 +

D#|-------------|-------------|-------------|-------------|
A#|(12)---------|-------------|-------------|-------------|
F#|------(12)---|-------------|-------------|-------------|
C#|-------------|-------------|-------------|-------------|
G#|-------------|-------------|-------------|-------------|
D#|-------------|-------------|-------------|-------------|
  1 + 2 + 3 +   1 + 2 + 3 +   1 + 2 + 3 +   1 + 2 + 3 +

D#|-------------|-------------|-------------|-------------|
A#|(12)---------|-------------|-------------|-------------|
F#|------(12)---|-------------|-------------|-------------|
C#|-------------|-------------|-------------|-------------|
G#|-------------|-------------|-------------|-------------|
D#|-------------|-------------|-------------|-------------|
  1 + 2 + 3 +   1 + 2 + 3 +   1 + 2 + 3 +   1 + 2 + 3 +

D#|-------------|-------------|-------------|-------------|
A#|(12)---------|-------------|-------------|-------------|
F#|------(12)---|-------------|-------------|-------------|
C#|-------------|-------------|-------------|-------------|
G#|-------------|-------------|-------------|-------------|
D#|-------------|-------------|-------------|-------------|
  1 + 2 + 3 +   1 + 2 + 3 +   1 + 2 + 3 +   1 + 2 + 3 +

D#|-------------|-------------|-------------|-------------|
A#|(12)---------|-------------|-------------|-------------|
F#|------(12)---|-------------|-------------|-------------|
C#|-------------|-------------|-------------|-------------|
G#|-------------|-------------|-------------|-------------|
D#|-------------|-------------|-------------|-------------|
  1 + 2 + 3 +   1 + 2 + 3 +   1 + 2 + 3 +   1 + 2 + 3 +

D#|-------------|-------------|
A#|-------------|-------------|
F#|-------------|-------------|
C#|-------------|-------------|
G#|-------------|-------------|
D#|-------------|-------------|
   1 + 2 + 3 +   1 + 2 + 3 +

Guitar 3 - (Harmonics Left Channel)

D#|-------------|-------------|(12)---------|-------------|
A#|-------------|-------------|------(12)---|-------------|
F#|-------------|-------------|-------------|(7)----------|
C#|-------------|-------------|-------------|-------------|
G#|-------------|-------------|-------------|-------------|
D#|-------------|-------------|-------------|-------------|
  1 + 2 + 3 +   1 + 2 + 3 +   1 + 2 + 3 +   1 + 2 + 3 +

D#|-------------|-------------|-------------|-------------|
A#|-------------|-------------|(7)----------|-------------|
F#|-------------|-------------|------(5)----|(7)----------|
C#|-------------|-------------|-------------|-------------|
G#|-------------|-------------|-------------|-------------|
D#|-------------|-------------|-------------|-------------|
  1 + 2 + 3 +   1 + 2 + 3 +   1 + 2 + 3 +   1 + 2 + 3 +

D#|-------------|-------------|(12)---------|-------------|
A#|-------------|-------------|------(12)---|-------------|
F#|-------------|-------------|-------------|(7)----------|
C#|-------------|-------------|-------------|-------------|
G#|-------------|-------------|-------------|-------------|
D#|-------------|-------------|-------------|-------------|
  1 + 2 + 3 +   1 + 2 + 3 +   1 + 2 + 3 +   1 + 2 + 3 +

D#|-------------|-------------|-------------|-------------|
A#|-------------|-------------|(7)----------|-------------|
F#|-------------|-------------|-------------|(5)----------|
C#|-------------|-------------|-------------|-------------|
G#|-------------|-------------|-------------|-------------|
D#|-------------|-------------|-------------|-------------|
   1 + 2 + 3 +   1 + 2 + 3 +   1 + 2 + 3 +   1 + 2 + 3 +


D#|-------------|-------------|-------------|-------------|
A#|-------------|-------------|(7)----------|-------------|
F#|-(7)---------|-------------|-------------|(5)----------|
C#|-------------|-------------|-------------|-------------|
G#|-------------|-------------|-------------|-------------|
D#|-------------|-------------|-------------|-------------|
  1 + 2 + 3 +   1 + 2 + 3 +   1 + 2 + 3 +   1 + 2 + 3 +

D#|-------------|-------------|
A#|-------------|-------------|
F#|-(7)---------|-------------|
C#|-------------|-------------|
G#|-------------|-------------|
D#|-------------|-------------|
  1 + 2 + 3 +   1 + 2 + 3 +

[Verse]


D#|-------------------------|-------------------------|
A#|-------------------------|-------------------------|
F#|-------------------------|-------------------------|
C#|--2----------------------|-0-----------------------|
G#|--2----------------------|-X-----------------------|
D#|--0----------------------|-3-----------------------|
   1   +   2   +   3   +    1   +   2   +   3   +

D#|-------------------------|-------------------------|
A#|-------------------------|-------------------------|
F#|--0----------------------|-------------------------|
C#|--X----------------------|-------------------------|
G#|--3----------------------|-------------------------|
D#|-------------------------|-------------------------|
   1   +   2   +   3   +    1   +   2   +   3   +

D#|-------------------------|-------------------------|
A#|-------------------------|-------------------------|
F#|-------------------------|-------------------------|
C#|--2----------------------|-0-----------------------|
G#|--2----------------------|-X-----------------------|
D#|--0----------------------|-3-----------------------|
   1   +   2   +   3   +    1   +   2   +   3   +

D#|-------------------------|-------------------------|
A#|-------------------------|-------------------------|
F#|--0----------------------|---------0-----0-0-----0-|
C#|--X----------------------|---------X-----X-X-----X-|
G#|--3----------------------|---------3-----3-3-----3-|
D#|-------------------------|-------------------------|
   1   +   2   +   3   +    1   +   2   +   3   +

     V       v   ^   v   ^    v       v   ^   v   ^
D#|-------------------------|-------------------------|
A#|-------------------------|-------------------------|
F#|-------------------------|-------------------------|
C#|--------------2-------0--|-------------5-------0---|
G#|--2-------2---2---2---0--|-5-------5---5---5---0---|
D#|--0-------0---0---0---0--|-3-------3---3---3---0---|
   1   +   2   +   3   +    1   +   2   +   3   +
   .       .       .        .       .       .

     V       v   ^   v   ^    v       v   ^   v   ^
D#|-------------------------|------------------------|
A#|-------------------------|------------------------|
F#|--------------5-------5--|-------------5-------0--|
C#|--5-------5---5---5---5--|-5-------5---5---5---0--|
G#|--3-------3---3---3---3--|-3-------3---3---3---0--|
D#|-------------------------|------------------------|
   1   +   2   +   3   +    1   +   2   +   3   +
   .       .       .        .       .       .

     V       v   ^   v   ^    v       v   ^   v   ^
D#|-------------------------|------------------------|
A#|----------3---3---3---3--|---------3---3---3---3--|
F#|----------0---0---0---0--|---------0---0---0---0--|
C#|--4-------4---4---4---4--|-4-------4---4---4---4--|
G#|--5-------5---5---5---5--|-5-------5---5---5---5--|
D#|-------------------------|------------------------|
   1   +   2   +   3   +    1   +   2   +   3   +

     V       v   ^   v   ^    v       v   ^   v   ^
D#|-------------------------|------------------------|
A#|--3-------3---3---3---3--|-3-------3---3---3---3--|
F#|--0-------0---0---0---0--|-0-------0---0---0---0--|
C#|--4-------4---4---4---4--|-4-------4---4---4---4--|
G#|--5-------5---5---5---5--|-5-------5---5---5---5--|
D#|-------------------------|------------------------|
   1   +   2   +   3   +    1   +   2   +   3   +

[Outro]

D#|--0-------0---0---0---0--|-------------------------|
A#|--0-------0---0---0---0--|-3-------3---3---3---3---|
F#|--0-------0---0---0---0--|-0-------0---0---0---0---|
C#|--2-------2---2---2---2--|-0-------0---0---0---0---|
G#|--2-------2---2---2---2--|-X-------X---X---X---X---|
D#|--0-------0---0---0---0--|-3-------3---3---3---3---|
   1   +   2   +   3   +    1   +   2   +   3   +
   .   .   .       .        .   .   .       .

D#|-------------------------|-------------------------|
A#|--3-------3---3---3---3--|--3-------3---3---3---3--|
F#|--0-------0---0---0---0--|--0-------0---0---0---0--|
C#|--X-------X---X---X---X--|--X-------X---X---X---X--|
G#|--3-------3---3---3---3--|--3-------3---3---3---3--|
D#|-------------------------|-------------------------|
   1   +   2   +   3   +     1   +   2   +   3   +

D#|--0-------0---0---0---0--|-------------------------|
A#|--0-------0---0---0---0--|-3-------3---3---3---3---|
F#|--0-------0---0---0---0--|-0-------0---0---0---0---|
C#|--2-------2---2---2---2--|-0-------0---0---0---0---|
G#|--2-------2---2---2---2--|-X-------X---X---X---X---|
D#|--0-------0---0---0---0--|-3-------3---3---3---3---|
   1   +   2   +   3   +    1   +   2   +   3   +
   .   .   .       .        .   .   .       .

D#|-------------------------|-------------------------|
A#|--3-------3---3---3---3--|--3-------3---3---3---3--|
F#|--0-------0---0---0---0--|--0-------0---0---0---0--|
C#|--X-------X---X---X---X--|--X-------X---X---X---X--|
G#|--3-------3---3---3---3--|--3-------3---3---3---3--|
D#|-------------------------|-------------------------|
   1   +   2   +   3   +     1   +   2   +   3   +

D#|--0-------0---0---0---0--|-------------------------|
A#|--0-------0---0---0---0--|-3-------3---3---3---3---|
F#|--0-------0---0---0---0--|-0-------0---0---0---0---|
C#|--2-------2---2---2---2--|-0-------0---0---0---0---|
G#|--2-------2---2---2---2--|-X-------X---X---X---X---|
D#|--0-------0---0---0---0--|-3-------3---3---3---3---|
   1   +   2   +   3   +    1   +   2   +   3   +
   .   .   .       .        .   .   .       .

D#|-------------------------|-------------------------|
A#|--3-------3---3---3---3--|--3-------3---3---3---3--|
F#|--2-------2---2---2---2--|--0-------0---0---0---0--|
C#|--2-------2---2---2---2--|--X-------X---X---X---X--|
G#|--0-------0---0---0---0--|--3-------3---3---3---3--|
D#|-------------------------|-------------------------|
   1   +   2   +   3   +     1   +   2   +   3   +

D#|--0-------0---0---0---0--|-------------------------|
A#|--0-------0---0---0---0--|-3-------3---3---3---3---|
F#|--0-------0---0---0---0--|-0-------0---0---0---0---|
C#|--2-------2---2---2---2--|-0-------0---0---0---0---|
G#|--2-------2---2---2---2--|-X-------X---X---X---X---|
D#|--0-------0---0---0---0--|-3-------3---3---3---3---|
   1   +   2   +   3   +    1   +   2   +   3   +
   .   .   .       .        .   .   .       .

D#|-------------------------|-------------------------|
A#|--3-------3---3---3---3--|--3-------3---3---3---3--|
F#|--0-------0---0---0---0--|--0-------0---0---0---0--|
C#|--X-------X---X---X---X--|--X-------X---X---X---X--|
G#|--3-------3---3---3---3--|--3-------3---3---3---3--|
D#|-------------------------|-------------------------|
   1   +   2   +   3   +     1   +   2   +   3   +

D#|-------------------------|-------------------------|
A#|--3-------3---3---3------|--0----------------------|
F#|--0-------0---0---0------|----------0--------------|
C#|--X-------X---X---X------|------------------2------|
G#|--3-------3---3---3------|-------------------------|
D#|-------------------------|-------------------------|
   1   +   2   +   3   +     1   +   2   +   3   +

D#|------------||
A#|--3---------||
F#|--0---------||
C#|--0---------||
G#|--X---------||
D#|--3---------||
   1   2   3


ORDER

[Intro]
[Verse]
[Chorus]
[Verse]
[Chorus]
[Interlude]
[Verse]
[Chorus]
[Outro]


************************************

| x    Dead note
| (n)  Ghost note
| .    under a note = palm mute
| (x)  natural harmonic
| V    down
| ^    up

************************************
Suggest correction
comments
print report bad tab
68 comments total. Showing first comments.
+23 reply
zmanishere 10 Feb 08, 2007 03:48 PM

Wow, this song is tabbed what 300 times on here and only ONE person got it right??? This is exactly how he plays this song live, and I mean EXACT. So if anyone out there is trying to impress people with this song, might as well have the correct version, which is this (sorry for the rant).

+2 reply
bitsol1 10 Feb 25, 2007 11:53 PM

this tab is awsome but isnt there like a cool picking slash strumming part? thats the only part im cunfused about but its a great tab

+3 reply
shaibi88 10 Apr 22, 2007 11:12 PM

good tab for acoustic version of this song.

guest
You may want to rate the tab now too:
select rating
Wanna post a correction for this tab? Suggest correction