Oops, an error
Loading. Please wait.

Swing Life Away Tab

version 8
41,939 views 6 this week
1 commentread comment
1 2 3 4 5
x 5
add to favorites
launch autoscroll
font size
0
reset
how to read this tab
guitar tuner
Autoscroll
slow
fast
+/-
esc
set tempo
stop
Help us to improve Ultimate-Guitar.com Take our survey!
×
intro

----------------------------------------------------------------2-----------|
0----------------------------1---0------------------------------3-----------|
----0-----------2---0--------0-------0----------2---0-----------2-----------|
--------2---------------4----2-----------2---------------4------0-----------|
-----------------------------3----------------------------------------------|
0---------------3----------------0--------------3---------------------------|


Verse..

----------------------------------------------------------------------------|
----------------------------------------------------------------------------|
------------------------5-5---5-5--5-5--5-5--------0-0-----------0-0--------|
------2-2---------5-5---5-5---5-5--5-5--5-5--7-7---7-7----7-7----7-7----7---|
2-2---2-2---5-5---5-5---3-3--------3-3-------5-5----------5-5-----------5---|
0-0---------3-3-------------------------------------------------------------|
* *         * *         * *        * *       * *          * *
Down up Down up strumming...
The palm muting is optional... Listen to the song and decide for yourself.

Chorus...

E      D     C9    G   E    D     C9      D              D
-------2--------------------2-------------2-|x2 Then.. --2----|
0------3-----3-----0---0----3-----3-------3-|          --3----|
0------2-----0-----0---0----2-----0-------2-|          --2----|
2------0-----2-----0---2----0-----2-------0-|          --0----|
2------------3-----2---2----------3---------|          -------|
0------------------3---0--------------------|          -------|..Strum a whole bunch

Chorus strumming...

down down up down up down down up down up down..

This is all i've tabbed so far.. I'll add more when I finish..
Email me and tell me what you think of this tab.
punk_skank@hotmail.com
Kayla.
Suggest correction
comments
print report bad tab
1 comment total.
0 reply
asthenia_rules 10 Jun 08, 2005 12:00 AM

It's not a C, it's a G.

guest
You may want to rate the tab now too:
select rating
Wanna post a correction for this tab? Suggest correction