Oops, an error
Loading. Please wait.

The Art Of Losing tab

version 1
version 1

Whole song

Interactive

16 views 1 this week
no commentswrite comment
1 2 3 4 5
3 more votes to show rating
add to favorites
×
Save as Personal and add changes to this tab that will be seen only by you. Learn more ›
×
You can save this tab as Personal to edit and correct it or add notes. All changes will be seen only by you. Learn more »
launch autoscroll
font size
0
reset
how to read this tab
guitar tuner
edit
Autoscroll
slow
fast
+/-
esc
set tempo
stop
Artist: Rise Against
Song: The Art Of Losing
Album: The Unraveling (2001)

Guitar 1 (E A D G B e) - 'Dan Wlekinski - Distortion'

[Intro]
4/4
  Guitar 1
    Wx3                                 +H              +Q.          E
e|------------------------------------|------------------------------------|
B|------------------------------------|------------------------------------|
G|------------------------------------|------------------------------7-----|
D|--2---------------------------------|------------------------------x-----|
A|--2---------------------------------|------------------------------5-----|
E|--0---------------------------------|------------------------------------|

    Wx3                                  E  (Q.)         E.    E.    E
e|------------------------------------|------------------------------------|
B|------------------------------------|------------------------------------|
G|--9---------------------------------|--9---------------7-----7-----7-----|
D|--x---------------------------------|--9---------------7-----7-----7-----|
A|--7---------------------------------|--7---------------5-----5-----5-----|
E|------------------------------------|------------------------------------|

[Verse]
  Gtr 1
    E.    E.    Q       E   E   E        E.    E.    Q       E   E   E
e|------------------------------------|------------------------------------|
B|o-----------------------------------|------------------------------------|
G|--9-----7-----9-------10--9---7-----|--9-----7-----9-------10--9---7-----|
D|--9-----7-----9-------10--9---7-----|--9-----7-----9-------10--9---7-----|
A|o-7-----5-----7-------8---7---5-----|--7-----5-----7-------8---7---5-----|
E|------------------------------------|------------------------------------|


    E.    E.    Q       E   E   E        E.    E.    Q       E   E   E     (x2)
e|------------------------------------|------------------------------------|
B|------------------------------------|-----------------------------------o|
G|--9-----7-----9-------10--9---7-----|--12----11----9-------11--9---7-----|
D|--9-----7-----9-------10--9---7-----|--12----11----9-------11--9---7-----|
A|--7-----5-----7-------8---7---5-----|--10----9-----7-------9---7---5----o|
E|------------------------------------|------------------------------------|

[Chorus]
  Gtr 1
    E   S E   S E   E   S E   S E        E   S E   S E   E   S E   S E
e|------------------------------------|------------------------------------|
B|------------------------------------|------------------------------------|
G|--5---5-5---5-5---------------------|--4---4-4---4-4---4---4-4---4-4-----|
D|--5---5-5---5-5---5---5-5---5-5-----|--4---4-4---4-4---4---4-4---4-4-----|
A|--3---3-3---3-3---5---5-5---5-5-----|--2---2-2---2-2---2---2-2---2-2-----|
E|------------------3---3-3---3-3-----|------------------------------------|

    E   S E   S E   E   S E   S E        E   S E   S E   E.    E.    E
e|------------------------------------|------------------------------------|
B|------------------------------------|------------------------------------|
G|--5---5-5---5-5---------------------|--4---4-4---4-4---4-----4-----4-----|
D|--5---5-5---5-5---5---5-5---5-5-----|--4---4-4---4-4---4-----4-----4-----|
A|--3---3-3---3-3---5---5-5---5-5-----|--2---2-2---2-2---2-----2-----2-----|
E|------------------3---3-3---3-3-----|------------------------------------|
PM                                    |                  .     .     .     |

    E   S E   S E   E   S E   S E        E   S E   S E   E   S E   S E
e|------------------------------------|------------------------------------|
B|------------------------------------|------------------------------------|
G|--5---5-5---5-5---------------------|--4---4-4---4-4---4---4-4---4-4-----|
D|--5---5-5---5-5---5---5-5---5-5-----|--4---4-4---4-4---4---4-4---4-4-----|
A|--3---3-3---3-3---5---5-5---5-5-----|--2---2-2---2-2---2---2-2---2-2-----|
E|------------------3---3-3---3-3-----|------------------------------------|

    E   S E   S E   E   S E   S E        E   S E   S E   E.    E.    E
e|------------------------------------|------------------------------------|
B|------------------------------------|------------------------------------|
G|--5---5-5---5-5---------------------|--4---4-4---4-4---------------------|
D|--5---5-5---5-5---5---5-5---5-5-----|--4---4-4---4-4---7-----5-----4-----|
A|--3---3-3---3-3---5---5-5---5-5-----|--2---2-2---2-2---7-----5-----4-----|
E|------------------3---3-3---3-3-----|------------------5-----3-----2-----|
PM                                    |                  .     .     .     |

    W                                   +H               E.    E.    E
e|------------------------------------|------------------------------------|
B|------------------------------------|------------------------------------|
G|------------------------------------|------------------7-----7-----7-----|
D|--2---------------------------------|------------------7-----7-----7-----|
A|--2---------------------------------|------------------5-----5-----5-----|
E|--0---------------------------------|------------------------------------|

[Bridge]
  Gtr 1
    W                                   +W
e|------------------------------------|------------------------------------|
B|------------------------------------|------------------------------------|
G|--9---------------------------------|------------------------------------|
D|--9---------------------------------|------------------------------------|
A|--7---------------------------------|------------------------------------|
E|------------------------------------|------------------------------------|

    E   E   E   E   E   E   E   E        E   E   E   E   E   E   E   E
e|------------------------------------|------------------------------------|
B|o-----------------------------------|------------------------------------|
G|--4---4---4---5---7---7---7---4-----|--4---4---4---4---5---4---2---4-----|
D|--2---2---2---5---5---5---5---2-----|--2---2---2---4---5---4---2---4-----|
A|o-2---2---2---3---5---5---5---2-----|--2---2---2---2---3---2---0---2-----|
E|------------------------------------|------------------------------------|

    E   E   E   E   E   E   E   E        E   E   E   E   E   E   E   E     (x2)
e|------------------------------------|------------------------------------|
B|------------------------------------|-----------------------------------o|
G|--4---4---4---5---7---7---7---4-----|--4---4---5---4---2---4-------2-----|
D|--2---2---2---5---5---5---5---2-----|--2---4---5---4---2---4---5---2-----|
A|--2---2---2---3---5---5---5---2-----|--2---2---3---2---0---2---5---0----o|
E|------------------------------------|--------------------------3---------|

    E   E   E   E   E   E   E   E        E   E   E   E   E   E   E   E
e|------------------------------------|------------------------------------|
B|o-----------------------------------|------------------------------------|
G|--------------5---------------------|--------------4---5---4---2---4-----|
D|--2---2---2---5---5---5---5---2-----|--2---2---2---4---5---4---2---4-----|
A|o-2---2---2---3---5---5---5---2-----|--2---2---2---2---3---2---0---2-----|
E|--0---0---0-------3---3---3---0-----|--0---0---0-------------------------|
PM  .   .   .   .   .   .   .   .     |  .   .   .   .   .   .   .   .     |

    E   E   E   E   E   E   E   E        E   E   E   E   E   E   E   E     (x2)
e|------------------------------------|------------------------------------|
B|------------------------------------|-----------------------------------o|
G|--------------5---------------------|------4---5---4---2---4-------2-----|  [On second round release the
D|--2---2---2---5---5---5---5---2-----|--2---4---5---4---2---4---5---2-----|   palm mute on the final bar]
A|--2---2---2---3---5---5---5---2-----|--2---2---3---2---0---2---5---0----o|
E|--0---0---0-------3---3---3---0-----|--0-----------------------3---------|
PM  .   .   .   .   .   .   .   .     |  .   .   .   .   .   .   .   .     |

    E   E   E   E   E   E   E   E        E   E   E   E   E   E   E   E
e|------------------------------------|------------------------------------|
B|------------------------------------|------------------------------------|
G|--4---4---4---5---7---7---7---4-----|--4---4---4---4---5---4---2---4-----|
D|--2---2---2---5---5---5---5---2-----|--2---2---2---4---5---4---2---4-----|
A|--2---2---2---3---5---5---5---2-----|--2---2---2---2---3---2---0---2-----|
E|------------------------------------|------------------------------------|

    E   E   E   E   E   E   E   E        E   E   E   E   E   E   E   E     
e|------------------------------------|------------------------------------|
B|------------------------------------|------------------------------------|
G|--4---4---4---5---7---7---7---4-----|--4---4---5---4---2---4-------2-----|
D|--2---2---2---5---5---5---5---2-----|--2---4---5---4---2---4---5---2-----|
A|--2---2---2---3---5---5---5---2-----|--2---2---3---2---0---2---5---0-----|
E|------------------------------------|--------------------------3---------|

    E   E   E   E   E   E   E   E        E   E   E   E   E   E   E   E
e|------------------------------------|------------------------------------|
B|------------------------------------|------------------------------------|
G|--4---4---4---5---7---7---7---4-----|--4---4---4---4---5---4---2---4-----|
D|--2---2---2---5---5---5---5---2-----|--2---2---2---4---5---4---2---4-----|
A|--2---2---2---3---5---5---5---2-----|--2---2---2---2---3---2---0---2-----|
E|------------------------------------|------------------------------------|

    E   E   E   E   E   E   E   E        E   E   E   E   E   E   E   E     
e|------------------------------------|------------------------------------|
B|------------------------------------|------------------------------------|
G|--4---4---4---5---7---7---7---4-----|--4---4---5---4---2---4-------2-----|
D|--2---2---2---5---5---5---5---2-----|--2---4---5---4---2---4---5---2-----|
A|--2---2---2---3---5---5---5---2-----|--2---2---3---2---0---2---5---0-----|
E|------------------------------------|--------------------------3---------|
PM                                    |                  .   .   .   .     |

    H              +Q.          E        E
e|------------------------------------|------------------------------------|
B|------------------------------------|------------------------------------|
G|------------------------------------|------------------------------------|
D|--2---------------------------2-----|--2---------------------------------|
A|--2---------------------------2-----|--2---------------------------------|
E|--0---------------------------0-----|--0---------------------------------|
PM                              .     |  .                                 |


************************************

|  x   Dead note
| PM   Palm mute
|  E   Eighth note
|  Q   Quarter note
|  H   Half note
|  W   Whole note
|  .   Dotted note
| (N)  Rest
|  +   Add note value
|o o|  Reprise

************************************

            
            
Suggest correction
Creating personal tab
Creating personal tab
You can edit any tab online and save it as your Personal.

You can edit, replace or remove any tab part or add personal notes – all changes will be seen only by you.

Personal tabs can be accessed anytime from any device, even offline.
Learn more »
Give kudos to tab author, rate the tab!
1 2 3 4 5
comments
print report bad tab
guest
You may want to rate the tab now too:
select rating
Wanna post a correction for this tab? Suggest correction