Oops, an error
Loading. Please wait.

The Dirt Whispered Tab

version 1
version 1

Whole song

Interactive

48,863 views 24 this week
18 commentsread comments
1 2 3 4 5
excellent!
x 17
add to favorites
launch autoscroll
font size
0
reset
how to read this tab
guitar tuner
Autoscroll
slow
fast
+/-
esc
set tempo
stop
Help us to improve Ultimate-Guitar.com Take our survey!
×
Author
-----------------------------------------------------------------------------
                             The Dirt Whispered - Rise Against
-----------------------------------------------------------------------------

This is my favorite song by Rise Against and I noticed that no one had made tabs for it
I decided to do them for you =) If any wrong stuff just e-mail Me!
Oh! And thanks to everyone who told me my tuning was wrong. I have now changed it to 
Down tuning =)

Tabbed by:David Gonzalez
Email:AnThEmPt4@Aol.com

Tuning:Half-Step Down

Intro:
But the dirt made no sound tonight...

Guitar 1
e|---------------------------------------------------------------------------|
B|---------------------------------------------------------------------------|
G|-----77--9/11---7777777----77--9/11---9999999---77--9/11---7777777---------|
D|-----xx--x/x----xxxxxxx----xx--x/x----xxxxxxx---xx--x/x----xxxxxxx---------|
A|-----55--7/9----5555555----55--7/9----7777777---55--7/9----5555555---------|
E|---------------------------------------------------------------------------|
Intro contnued:
e|---------------------------------------------------------------------------|
B|---------------------------------------------------------------------------|
G|----12121212-11111111--99999----6-7----------------------------------------|
D|-----x-x-x-x--x-x-x-x--xxxxx----x-x----------------------------------------|
A|----10101010--9-9-9-9--77777----4-5----------------------------------------|
E|---------------------------------------------------------------------------|

Guitar 2:
e|---------------------------------------------------------------------------|
B|---------------------------------------------------------------------------|
G|---------777--77777777--------777------------------------------------------|
D|---555---xxx--77777777---555--xxx----777777777-----------------------------|
A|---555---555--55555555---555--555----777777777-----------------------------|
E|---333-------------------333---------555555555-----------------------------|
Repeat two times

Verse: Echoes of songs still lurk

Both Guitars:
e|---------------------------------------------------------------------------|
B|---------------------------------------------------------------------------|
G|---------777--77777777--------77-------------------------------------------|
D|---555---xxx--77777777---555--xx-----777777777-----------------------------|
A|---555---555--55555555---555--55-----777777777-----------------------------|
E|---333--------********---333---------555555555-----------------------------|
      **                    **          ********
Verse continued: Danced just to please the gods
e|---------------------------------------------------------------------------|
B|---------------------------------------------------------------------------|
G|---------777--77777777--------77-------------------------------------------|
D|---555---xxx--77777777---555--xx-----777777777-----------------------------|
A|---555---555--55555555---555--55-----777777777-----------------------------|
E|---333--------********---333---------555555555-----------------------------|
      **                    **

Pre-Chorus: So it goes

Guitar one:
e|---------------------------------------------------------------------------|
B|---------------------------------------------------------------------------|
G|---1111111111111111--99999797--77777777------------------------------------|
D|---x-x-x-x-x-x-x-x---xxxxxxxx--xxxxxxxx------------------------------------|
A|---9-9-9-9-9-9-9-9---77777595--55555555------------------------------------|
E|---------------------------------------------------------------------------|

Guitar Two:
e|---------------------------------------------------------------------------|
B|---------------------------------------------------------------------------|
G|---44444444----------------------------------------------------------------|
D|---44444444--77777777--55555555--------------------------------------------|
A|---22222222--77777777--55555555--------------------------------------------|
E|-------------55555555--33333333--------------------------------------------|


Both Guitars:
e|---------------------------------------------------------------------------|
B|---------------------------------------------------------------------------|
G|---------------------------------------------------------------------------|
D|-----55555555-55555555-----------------------------------------------------|
A|-----55555555-55555555-----------------------------------------------------|
E|-----33333333-33333333-----------------------------------------------------|
       ********

Chorus: On cold nights

Both Guitars:
e|---------------------------------------------------------------------------|
B|---------------------------------------------------------------------------|
G|---777777777777------------------------------------------------------------|
D|---777777777777--777777777777--555555555555555555555555--------------------|
A|---555555555555--777777777777--555555555555555555555555--------------------|
E|-----------------555555555555--333333333333333333333333--------------------|

Chorus continued: The concrete
e|---------------------------------------------------------------------------|
B|---------------------------------------------------------------------------|
G|---777777777777------------------------------777777---------7~-------------|
D|---777777777777--777777777777--555555555555--xxxxxx--777777-x~-------------|
A|---555555555555--777777777777--555555555555--555555--777777-5~-------------|
-------------------555555555555--333333333333----------555555----------------|


Guitar One:
e|---------------------------------------------------------------------------|
B|--15--15~------------------------------------------------------------------|
G|----14-----14~-------------------------------------------------------------|
D|---------------------------------------------------------------------------|
A|---------------------------------------------------------------------------|
E|---------------------------------------------------------------------------|

Verse 2: The postcard says

Both Guitars:
e|------------------------------------------------------------------------------|
B|------------------------------------------------------------------------------|
G|-------77777777-------77----------------7/9-7--7777777-------77---------------|
D|---7---77777777--555--xx-77777777--555--x/x-7--7777777--555--xx--77777777-----|
A|---7---55555555--555--55-77777777--555--5/7-5--5555555--555--55--77777777-----|
E|---5-------------333-----55555555--333---------*******--333------55555555-----|
                    **      *******   **                   **

Pre-Chorus: But that was then


Guitar one:
e|---------------------------------------------------------------------------|
B|---------------------------------------------------------------------------|
G|---1111111111111111--99999797--77777777------------------------------------|
D|---x-x-x-x-x-x-x-x---xxxxxxxx--xxxxxxxx------------------------------------|
A|---9-9-9-9-9-9-9-9---77777575--55555555------------------------------------|
E|---------------------------------------------------------------------------|

Guitar Two:
e|---------------------------------------------------------------------------|
B|---------------------------------------------------------------------------|
G|---44444444----------------------------------------------------------------|
D|---44444444--77777777--55555555--------------------------------------------|
A|---22222222--77777777--55555555--------------------------------------------|
E|-------------55555555--33333333--------------------------------------------|


Both Guitars:
e|---------------------------------------------------------------------------|
B|---------------------------------------------------------------------------|
G|---------------------------------------------------------------------------|
D|-----55555555-55555555-----------------------------------------------------|
A|-----55555555-55555555-----------------------------------------------------|
E|-----33333333-33333333-----------------------------------------------------|
       ********


Chorus: On cold nights

Both Guitars:
e|---------------------------------------------------------------------------|
B|---------------------------------------------------------------------------|
G|---777777777777------------------------------------------------------------|
D|---777777777777--777777777777--555555555555555555555555--------------------|
A|---555555555555--777777777777--555555555555555555555555--------------------|
E|-----------------555555555555--333333333333333333333333--------------------|

Chorus continued: The concrete
e|---------------------------------------------------------------------------|
B|---------------------------------------------------------------------------|
G|---777777777777------------------------------777777------------------------|
D|---777777777777--777777777777--555555555555--xxxxxx--777777----------------|
A|---555555555555--777777777777--555555555555--555555--777777----------------|
-------------------555555555555--333333333333----------555555----------------|


Interlude:A destination

Guitar 1
e|---------------------------------------------------------------------------|
B|-----------7777-------------7777-------------7777----88887777--------------|
G|---66667777----7777-66667777----7777-66667777----7777--------77779999------|
D|---------------------------------------------------------------------------|
A|---------------------------------------------------------------------------|
E|---------------------------------------------------------------------------|

ee|--------------------------------------------------------------------------|
B|-----------7777-------------77778888-------------7777----88887777----------|
G|---66667777----7777-66667777---------66667777--------7777--------77779999--|
D|---------------------------------------------------------------------------|
A|---------------------------------------------------------------------------|
E|---------------------------------------------------------------------------|

Guitar 2:
e|---------------------------------------------------------------------------|
B|---------------------------------------------------------------------------|
G|---------------------------------------7777777777777777-999999999999999----|
D|----999999999999999--777777777777777---7777777777777777-999999999999999----|
A|----999999999999999--777777777777777---5555555555555555-777777777777777----|
E|----777777777777777--555555555555555---------------------------------------|
       **************   **************
Repeat Two Times


Both Guitars:
e|---------------------------------------------------------------------------|
B|---------------------------------------------------------------------------|
G|--7777777777777777--6666666666666666--77~----------------------------------|
D|--xxxxxxxxxxxxxxxx--xxxxxxxxxxxxxxxx--77~----------------------------------|
A|--5555555555555555--4444444444444444--55~----------------------------------|
E|---------------------------------------------------------------------------|


Interlude 2: Her breath to hear

Guitar 1:
e|------------------------------------------------------------------------------|
B|------------------------------------------------------------------------------|
G|-----14141414-12-11-11-11-11-11-11-11-11-12121212-11-99999999-----------------|
D|-----x-x-x-x--x--x--x--x--x--x--x--x--x--x-x-x-x--x--xxxxxxxx-----------------|
A|-----12121212-10-9--9--9--9--9--9--9--9--10101010-9--77777777-----------------|
E|------------------------------------------------------------------------------|


Both Guitars
e|---------------------------------------------------------------------------|
B|---------------------------------------------------------------------------|
G|---------------------------------------------------------------------------|
D|---555555555---------------------------------------------------------------|
A|---555555555---------------------------------------------------------------|
E|---333333333---------------------------------------------------------------|
      *******

Pickslide

Chorus: On cold nights

Both Guitars:
e|---------------------------------------------------------------------------|
B|---------------------------------------------------------------------------|
G|---777777777777------------------------------------------------------------|
D|---777777777777--777777777777--555555555555555555555555--------------------|
A|---555555555555--777777777777--555555555555555555555555--------------------|
E|-----------------555555555555--333333333333333333333333--------------------|

Chorus continued: The concrete
e|---------------------------------------------------------------------------|
B|---------------------------------------------------------------------------|
G|---777777777777------------------------------777777------------------------|
D|---777777777777--777777777777--555555555555--xxxxxx--777777----------------|
A|---555555555555--777777777777--555555555555--555555--777777----------------|
-------------------555555555555--333333333333----------555555----------------|

Ending Chorus: I slip

Guitar 1:
e|---------------------------------------------------------------------------|
B|---------------------------------------------------------------------------|
G|-----7--7/9/11------7/9/11/7---7/9/11/12-11-12-11--------------------------|
D|-----x--x/x/x-------x/x/x-/x---x/x/x/-x--x--x--x---------------------------|
A|-----5--5/7/10-------5/7/9/5---5/7/9/10--9-10--9----------------=----------|
E|---------------------------------------------------------------------------|

e|---------------------------------------------------------------------------|
B|---------------------------------------------------------------------------|
G|-----7--7/9/11------7/9/11/7---7/9/11/12-11-12-14--------------------------|
D|-----x--x/x/x-------x/x/x-/x---x/x/x/-x--x--x--x---------------------------|
A|-----5--5/7/9-------5/7/9-/5---5/7/9/-10--9-10-12--------------------------|
E|---------------------------------------------------------------------------|


Guitar 2:
e|---------------------------------------------------------------------------|
B|---------------------------------------------------------------------------|
G|---777777777777------------------------------------------------------------|
D|---777777777777--777777777777--555555555555555555555555--------------------|
A|---555555555555--777777777777--555555555555555555555555--------------------|
E|-----------------555555555555--333333333333333333333333--------------------|

e|---------------------------------------------------------------------------|
B|---------------------------------------------------------------------------|
G|---777777777777----------------------------------77777777------------------|
D|---777777777777--777777777777--5555555555555555--xxxxxxxx--77777777--------|
A|---555555555555--777777777777--5555555555555555--55555555--77777777--------|
E|-----------------555555555555--3333333333333333------------55555555--------|


End On:

Guitar One
e|----------|
B|----------|
G|----19~---|
D|----x-~---|
A|----17~---|
E|----------|

Guitar Two
e|---------|
B|---------|
G|----7~---|
D|----7~---|
A|----5~---|
E|---------|

There you go =)
a very fun song to play!

| /  slide up
| \  slide down
| h  hammer-on
| p  pull-off
| ~  vibrato
| +  harmonic
| x  Mute note
=============================================================================
Suggest correction
What's this?
You can suggest a correction to this tab. Community and Mods will review your correction and vote to approve or reject it.
comments
print report bad tab
18 comments total. Showing first comments.
0 reply
stockylachy 55 wrote on November 4 2008, 05:30 pm

Apart from the fact that is played half a step down like all the other songs on the album its pretty good.

0 reply
g_tab_man 325 wrote on November 17 2008, 07:33 pm

like the first guy said, they play half step down. but tuning aside, its a good tab. 5*s

0 reply
Punker 96 102 wrote on November 18 2008, 12:58 pm

I was also going to comment that the tuning is A Half Step down, but from the two posts above I think you've got the idea, haha. Good tab though. I'm in a band and we cover this song. We play a few parts a little differently, not to mention the tuning, but other than that awesome job for a standard tuning version indeed!

guest
You may want to rate the tab now too:
select rating
Please do not post tabs as comments. Select "correction" instead!