Oops, an error
Loading. Please wait.

The Eco-Terrorist In Me Bass Tab

version 1
version 1

Whole song

Interactive

314 views 1 this week
no commentswrite comment
1 2 3 4 5
please rate
add to favorites
launch autoscroll
font size
0
reset
guitar tuner
Autoscroll
slow
fast
+/-
esc
set tempo
stop
Help us to improve Ultimate-Guitar.com Take our survey!
×
Author
Difficulty
Tuning
intermediate
D# G# C# F# A# D#
## ------------ SONG: Rise Against - The Eco-Terrorist in Me ----------- ##
## -------------------------- INSTRUMENT: Bass ------------------------- ##

## ----------------------- BASSIST: Joe Principe ----------------------- ##
## ------------------------ TUNING: Eb STANDARD ------------------------ ##
## --------------------------- TEMPO: 170bpm --------------------------- ##

## -------------------------------- INTRO ------------------------------ ##

Gb|-----------------|-----------------|-----------------|-----------------|
Db|-----------------|-----------------|-----------------|-------------2---|
Ab|-----------------|-----------------|-----------------|-----------------|
Eb|-----------------|-----------------|-----------------|-----------------|
    1 + 2 + 3 + 4 +   1 + 2 + 3 + 4 +   1 + 2 + 3 + 4 +   1 + 2 + 3 + 4 +

Gb|-----------------|-----------------|-----------------|-----------------||
Db|-----------------|-----------------|-----------------|-----------------||
Ab|-2~--------------|-----------------|-----------------|-----------------||
Eb|-----------------|-----------------|-----------------|-----------------||
    1 + 2 + 3 + 4 +   1 + 2 + 3 + 4 +   1 + 2 + 3 + 4 +   1 + 2 + 3 + 4 +

## -------------------------------- VERSE ------------------------------ ##

Gb|-----------------|-----------------|-----------------|-----------------|
Db|-------------2---|-------------2---|-------------2---|-----------------|
Ab|-2---2-2---2-----|-2---2-2---2-----|-2---2-2---2-----|-----------------|
Eb|-----------------|-----------------|-----------------|-3---3-3---3-3---|
    1 + 2 + 3 + 4 +   1 + 2 + 3 + 4 +   1 + 2 + 3 + 4 +   1 + 2 + 3 + 4 +

Gb|-----------------|-----------------|-----------------|-----------------|
Db|-------------2---|-------------2---|-------------2---|-5---4---2---5---|
Ab|-2---2-2---2-----|-2---2-2---2-----|-2---2-2---2-----|-----------------|
Eb|-----------------|-----------------|-----------------|-----------------|
    1 + 2 + 3 + 4 +   1 + 2 + 3 + 4 +   1 + 2 + 3 + 4 +   1 + 2 + 3 + 4 +

Gb|-----------------|-----------------|-----------------|-----------------|
Db|-------------2---|-------------2---|-------------2---|-----------------|
Ab|-2---2-2---2-----|-2---2-2---2-----|-2---2-2---2-----|-----------------|
Eb|-----------------|-----------------|-----------------|-3---3-3---3-3---|
    1 + 2 + 3 + 4 +   1 + 2 + 3 + 4 +   1 + 2 + 3 + 4 +   1 + 2 + 3 + 4 +

Gb|-----------------|-----------------|-----------------|-----------------||
Db|-------------2---|-------------2---|-------------2---|-----------------||
Ab|-2---2-2---2-----|-2---2-2---2-----|-2---2---2-------|-----------------||
Eb|-----------------|-----------------|-----------------|-3---5---3---2---||
    1 + 2 + 3 + 4 +   1 + 2 + 3 + 4 +   1 + 2 + 3 + 4 +   1 + 2 + 3 + 4 +


## ----------------------------- PRE-CHORUS ---------------------------- ##

Gb|-----------------|-----------------|-----------------|-----------------|
Db|-----------------|-----------------|-----------------|-----------------|
Ab|-5---5-5---5-5---|-5---5-5---5-5---|-0---0-0---0-0---|-7---7-7---7-7---|
Eb|-----------------|-----------------|-----------------|-----------------|
    1 + 2 + 3 + 4 +   1 + 2 + 3 + 4 +   1 + 2 + 3 + 4 +   1 + 2 + 3 + 4 +

Gb|-----------------|-----------------|-----------------|-----------------|
Db|-----------------|-----------------|-----------------|-----------------|
Ab|-2---2-2---2-2---|-2---2-2---2-2---|-2---2-2---2-2---|-2---2-2---2-2---|
Eb|-----------------|-----------------|-----------------|-----------------|
    1 + 2 + 3 + 4 +   1 + 2 + 3 + 4 +   1 + 2 + 3 + 4 +   1 + 2 + 3 + 4 +

Gb|-----------------|-----------------|-----------------|-----------------|
Db|-----------------|-----------------|-----------------|-----------------|
Ab|-5---5-5---5-5---|-5---5-5---5-5---|-0---0-0---0-0---|-7---7-7---7-7---|
Eb|-----------------|-----------------|-----------------|-----------------|
    1 + 2 + 3 + 4 +   1 + 2 + 3 + 4 +   1 + 2 + 3 + 4 +   1 + 2 + 3 + 4 +

Gb|-----------------|-----------------|-----------------|-----------------|
Db|-----------------|-----------------|-----9---9---9---|-9---7-----------|
Ab|-2---2-2---2-2---|-2---2-2---2-2---|-2///------------|---------10--9---|
Eb|-----------------|-----------------|-----------------|-----------------|
    1 + 2 + 3 + 4 +   1 + 2 + 3 + 4 +   1 + 2 + 3 + 4 +   1 + 2 + 3 + 4 +

Gb|-----------------|-----------------|-----------------|-----------------|
Db|-----------------|-----------------|-----------------|-----------------|
Ab|-5---5---5---5---|-5---5---5---0---|-0---0---0---0---|-0---0---0---0---|
Eb|-----------------|-----------------|-----------------|-----------------|
    1 + 2 + 3 + 4 +   1 + 2 + 3 + 4 +   1 + 2 + 3 + 4 +   1 + 2 + 3 + 4 +

Gb|-----------------|-----------------|-----------------|-----------------|
Db|-----------------|-----------------|-----------------|-----------------|
Ab|-0---------------|-----------------|-----------------|-----------------|
Eb|-----0---0---0---|-0---0---0---2---|-2---2---2---2---|-2---2---2---2---|
    1 + 2 + 3 + 4 +   1 + 2 + 3 + 4 +   1 + 2 + 3 + 4 +   1 + 2 + 3 + 4 +

Gb|-----------------|-----------------|-----------------|-----------------||
Db|-----------------|-----------------|-----------------|-----------------||
Ab|-----------------|-----------------|-0---0---0---0---|-0---0---0---0---||
Eb|-3---3---3---3---|-3---3---3---3---|-----------------|-----------------||
    1 + 2 + 3 + 4 +   1 + 2 + 3 + 4 +   1 + 2 + 3 + 4 +   1 + 2 + 3 + 4 +


## ------------------------------- CHORUS ------------------------------ ##

Gb|-----------------|-----------------|-----------------|-----------------|
Db|-----------------|-----------------|-----------------|-----------------|
Ab|-2---2-2---2-2---|-2---2-2---2-2---|-----------------|-5---5-5---5-5---|
Eb|-----------------|-----------------|-3---3-3---3-3---|-----------------|
    1 + 2 + 3 + 4 +   1 + 2 + 3 + 4 +   1 + 2 + 3 + 4 +   1 + 2 + 3 + 4 +

Gb|-----------------|-----------------|-----------------|-----------------|
Db|-----------------|-11~-------------|-12~-------------|-14~-------------|
Ab|-0---0-0---0-0---|-0---0-0---0-0---|-0---0-0---0-0---|-0---0-0---0-0---|
Eb|-----------------|-----------------|-----------------|-----------------|
    1 + 2 + 3 + 4 +   1 + 2 + 3 + 4 +   1 + 2 + 3 + 4 +   1 + 2 + 3 + 4 +

Gb|-----------------|-----------------|-----------------|-----------------|
Db|-----------------|-----------------|-----------------|-----------------|
Ab|-2---2-2---2-2---|-2---2-2---2-2---|-----------------|-5---5-5---5-5---|
Eb|-----------------|-----------------|-3---3-3---3-3---|-----------------|
    1 + 2 + 3 + 4 +   1 + 2 + 3 + 4 +   1 + 2 + 3 + 4 +   1 + 2 + 3 + 4 +

Gb|-----------------|-----------------|-----------------|-----------------|
Db|-----------------|-11~-------------|-12~-------------|-11~-7---7---7---|
Ab|-0---0-0---0-0---|-0---0-0---0-0---|-0---0-0---0-0---|-0---0---0---0---|
Eb|-----------------|-----------------|-----------------|-----------------|
    1 + 2 + 3 + 4 +   1 + 2 + 3 + 4 +   1 + 2 + 3 + 4 +   1 + 2 + 3 + 4 +

Gb|-----------------|-----------------|-----------------|-----------------|
Db|-----------------|-----------------|-----------------|-----------------|
Ab|-----------------|-------------0---|-----0---0---0---|-0---0---0---0---|
Eb|-3-------3---3---|-3---3---3-------|-----------------|-----------------|
    1 + 2 + 3 + 4 +   1 + 2 + 3 + 4 +   1 + 2 + 3 + 4 +   1 + 2 + 3 + 4 +

Gb|-----------------|-----------------|-----------------|-----------------|
Db|-----------------|-----------------|-----------------|-----------------|
Ab|-2---2-----------|-0---0-----------|-----------------|-----------------|
Eb|-----------------|-----------------|-3---3---3---3---|-3---3---3---3---|
    1 + 2 + 3 + 4 +   1 + 2 + 3 + 4 +   1 + 2 + 3 + 4 +   1 + 2 + 3 + 4 +


Gb|-----------------|-----------------|-----------------|-----------------|
Db|-----------------|-----------------|-----------------|-----------------|
Ab|-----------------|-----------------|-0---0-0---0-0---|-0---0-0-0-0-0-0-|
Eb|-3---3-3---3-3---|-3---3-3---3-3---|-----------------|-----------------|
    1 + 2 + 3 + 4 +   1 + 2 + 3 + 4 +   1 + 2 + 3 + 4 +   1 + 2 + 3 + 4 +

Gb|-----------------|-----------------|-----------------|---------16------||
Db|-----------------|-----------------|-----------------|-----16------16--||
Ab|-2~--------------|-----------------|-------------////|-14--------------||
Eb|-----------------|-----------------|-----------------|-----------------||
    1 + 2 + 3 + 4 +   1 + 2 + 3 + 4 +   1 + 2 + 3 + 4 +   1 + 2 + 3 + 4 +

## -------------------------------- VERSE ------------------------------ ##

Gb|-----------------|-----------------|-----------------|-----------------|
Db|-----------------|-----------------|-----------------|-----------------|
Ab|-2---2-2---2-2---|-2---2-2---2-2---|-2---2-2---2-2---|-----------------|
Eb|-----------------|-----------------|-----------------|-3---3-3---3-3---|
    1 + 2 + 3 + 4 +   1 + 2 + 3 + 4 +   1 + 2 + 3 + 4 +   1 + 2 + 3 + 4 +

Gb|-----------------|-----------------|-----------------|-----------------|
Db|-----------------|-----------------|-----------------|-----------------|
Ab|-2---2-2---2-2---|-2---2-2---2-2---|-------5-----0---|-5/7---0-----1---|
Eb|-----------------|-----------------|-3---------------|-----------------|
    1 + 2 + 3 + 4 +   1 + 2 + 3 + 4 +   1 + 2 + 3 + 4 +   1 + 2 + 3 + 4 +

Gb|-----------------|-----------------|-----------------|-----------------|
Db|-----------------|-----------------|-----------------|-----------------|
Ab|-2---2-2---2-2---|-2---2-2---2-2---|-2---2-2---2-2---|-----------------|
Eb|-----------------|-----------------|-----------------|-3---3-3---3-3---|
    1 + 2 + 3 + 4 +   1 + 2 + 3 + 4 +   1 + 2 + 3 + 4 +   1 + 2 + 3 + 4 +

Gb|-----------------|-----------------|-----------------|-----------------||
Db|-----------------|-------------2///|-5-----7-----9---|-7---0---5---4---||
Ab|-2---2-2---2-2---|-2---2-2---2-----|-----------------|-----------------||
Eb|-----------------|-----------------|-----------------|-----------------||
    1 + 2 + 3 + 4 +   1 + 2 + 3 + 4 +   1 + 2 + 3 + 4 +   1 + 2 + 3 + 4 +


## ----------------------------- PRE-CHORUS ---------------------------- ##

Gb|-----------------|-----------------|-----------------|-----------------|
Db|-----------------|-----------------|-----------------|-----------------|
Ab|-5---5---5---5---|-5---5---5---5---|-0---0---0---0---|-7---7---7---7---|
Eb|-----------------|-----------------|-----------------|-----------------|
    1 + 2 + 3 + 4 +   1 + 2 + 3 + 4 +   1 + 2 + 3 + 4 +   1 + 2 + 3 + 4 +

Gb|-----------------|-----------------|-----------------|-----------------|
Db|-----------------|-----------------|-----------------|-----------------|
Ab|-2---2---2---2---|-2---2---2---2---|-----------------|-----------------|
Eb|-----------------|-----------------|-2---2---2---2---|-2---2---2---2---|
    1 + 2 + 3 + 4 +   1 + 2 + 3 + 4 +   1 + 2 + 3 + 4 +   1 + 2 + 3 + 4 +

Gb|-----------------|-----------------|-----------------|-----------------||
Db|-----------------|-----------------|-----------------|-----------------||
Ab|-----------------|-----------------|-0---0---0---0---|-0---------------||
Eb|-3---3---3---3---|-3---3---3---3---|-----------------|-----3---2---0---||
    1 + 2 + 3 + 4 +   1 + 2 + 3 + 4 +   1 + 2 + 3 + 4 +   1 + 2 + 3 + 4 +


## ------------------------------- CHORUS ------------------------------ ##

Gb|-----------------|-----------------|-----------------|-----------------|
Db|-----------------|-----------------|-----------------|-----------------|
Ab|-2---2-2---2-2---|-2---2-2---2-2---|-----------------|-5---5-5---5-5---|
Eb|-----------------|-----------------|-3---3-3---3-3---|-----------------|
    1 + 2 + 3 + 4 +   1 + 2 + 3 + 4 +   1 + 2 + 3 + 4 +   1 + 2 + 3 + 4 +

Gb|-----------------|-----------------|-----------------|-----------------|
Db|-----------------|-11~-------------|-12~-------------|-14~-------------|
Ab|-0---0-0---0-0---|-0---0-0---0-0---|-0---0-0---0-0---|-0---0-0---0-0---|
Eb|-----------------|-----------------|-----------------|-----------------|
    1 + 2 + 3 + 4 +   1 + 2 + 3 + 4 +   1 + 2 + 3 + 4 +   1 + 2 + 3 + 4 +

Gb|-----------------|-----------------|-----------------|-----------------|
Db|-----------------|-----------------|-----------------|-----------------|
Ab|-2---2-2---2-2---|-2---2-2---2-2---|-----------------|-5---5-5---5-5---|
Eb|-----------------|-----------------|-3---3-3---3-3---|-----------------|
    1 + 2 + 3 + 4 +   1 + 2 + 3 + 4 +   1 + 2 + 3 + 4 +   1 + 2 + 3 + 4 +

Gb|-----------------|-----------------|-----------------|-----------------|
Db|-----------------|-11~-------------|-12~-------------|-11~-7---7---7---|
Ab|-0---0-0---0-0---|-0---0-0---0-0---|-0---0-0---0-0---|-0---0---0---0---|
Eb|-----------------|-----------------|-----------------|-----------------|
    1 + 2 + 3 + 4 +   1 + 2 + 3 + 4 +   1 + 2 + 3 + 4 +   1 + 2 + 3 + 4 +

Gb|-----------------|-----------------|-----------------|-----------------|
Db|-----------------|-----------------|-----------------|-----------------|
Ab|-----------------|-------------0---|-----0---0---0---|-0---0---0---0---|
Eb|-3-------3---3---|-3---3---3-------|-----------------|-----------------|
    1 + 2 + 3 + 4 +   1 + 2 + 3 + 4 +   1 + 2 + 3 + 4 +   1 + 2 + 3 + 4 +

Gb|-----------------|-----------------|-----------------|-----------------|
Db|-----------------|-----------------|-----------------|-----------------|
Ab|-2---2-----------|-0---0-----------|-----------------|-----------------|
Eb|-----------------|-----------------|-3---3---3-------|-3---3---3---3---|
    1 + 2 + 3 + 4 +   1 + 2 + 3 + 4 +   1 + 2 + 3 + 4 +   1 + 2 + 3 + 4 +

Gb|-----------------|-----------------|-----------------|-----------------|
Db|-----------------|-----------------|-----------------|-----------------|
Ab|-----------------|-----------------|-----------------|-----------------|
Eb|-3---3---3---3---|-3---3---3---3---|-3---3---3---3---|-3---3---3---3---|
    1 + 2 + 3 + 4 +   1 + 2 + 3 + 4 +   1 + 2 + 3 + 4 +   1 + 2 + 3 + 4 +

Gb|-----------------|-----------------|-----------------|-----------------||
Db|-----------------|-----------------|-----------------|-----------------||
Ab|-0---0---0---0---|-0---0---0---0---|-0---0---0---0---|-0---0---0---0---||
Eb|-----------------|-----------------|-----------------|-----------------||
    1 + 2 + 3 + 4 +   1 + 2 + 3 + 4 +   1 + 2 + 3 + 4 +   1 + 2 + 3 + 4 +

## ------------------------------- BRIDGE ------------------------------ ##
## ----------------------------- (half time) --------------------------- ##

Gb|-----------------|-----------------|-----------------|-----------------|
Db|-----------------|-----------------|-----------------|-----------------|
Ab|-----------------|-----------------|-----------------|-----------------|
Eb|-3---3---3---3---|-3---3---3---3---|-0---0---0---0---|-0---0---0---0---|
    1 + 2 + 3 + 4 +   1 + 2 + 3 + 4 +   1 + 2 + 3 + 4 +   1 + 2 + 3 + 4 +

Gb|-----------------|-----------------|-----------------|-----------------|
Db|-----------------|-----------------|-----------------|-----------------|
Ab|-2---2---2---2---|-2---2---2---2---|-4---4---4---4---|-4---4---4---4---|
Eb|-----------------|-----------------|-----------------|-----------------|
    1 + 2 + 3 + 4 +   1 + 2 + 3 + 4 +   1 + 2 + 3 + 4 +   1 + 2 + 3 + 4 +

Gb|-----------------|-----------------|-----------------|-----------------||
Db|-----------------|-----------------|-----------------|-----------------||
Ab|-5---5---5---5---|-5---5---5---5---|-7---7---7---7---|-7---7---7---7---||
Eb|-----------------|-----------------|-----------------|-----------------||
    1 + 2 + 3 + 4 +   1 + 2 + 3 + 4 +   1 + 2 + 3 + 4 +   1 + 2 + 3 + 4 +


## ------------------------------ INTERLUDE ---------------------------- ##

Gb|-----------------|-----------------|-----------------|-----------------|
Db|-----------------|-----------------|-----------------|-----------------|
Ab|-2---2---2---2---|-2---2---2---2---|-----------------|-5---5---5---5---|
Eb|-----------------|-----------------|-3---3---3---3---|-----------------|
    1 + 2 + 3 + 4 +   1 + 2 + 3 + 4 +   1 + 2 + 3 + 4 +   1 + 2 + 3 + 4 +

Gb|-----------------|-----------------|-----------------|-----------------|
Db|-----------------|-----------------|-----------------|-----------------|
Ab|-0---0---0---0---|-0---0---0---0---|-0---0---0---0---|-0---0---0---0---|
Eb|-----------------|-----------------|-----------------|-----------------|
    1 + 2 + 3 + 4 +   1 + 2 + 3 + 4 +   1 + 2 + 3 + 4 +   1 + 2 + 3 + 4 +
    
Gb|-----------------|-----------------|-----------------|-----------------|
Db|-----------------|-----------------|-----------------|-----------------|
Ab|-2---2---2---2---|-2---2---2---2---|-----------------|-5---5---5---5---|
Eb|-----------------|-----------------|-3---3---3---3---|-----------------|
    1 + 2 + 3 + 4 +   1 + 2 + 3 + 4 +   1 + 2 + 3 + 4 +   1 + 2 + 3 + 4 +

Gb|-----------------|-----------------|-----------------|-----------------|
Db|-----------------|-----------------|-----------------|-----------------|
Ab|-0---0---0---0---|-0---0---0---0---|-0---0---0---0---|-0---0---0---0---|
Eb|-----------------|-----------------|-----------------|-----------------|
    1 + 2 + 3 + 4 +   1 + 2 + 3 + 4 +   1 + 2 + 3 + 4 +   1 + 2 + 3 + 4 +

Gb|-----------------|-----------------|-----------------|-----------------|
Db|-----------------|-----------------|-----------------|-----------------|
Ab|-2---------------|-----------------|-----------------|-----------------|
Eb|-----------------|-----------------|-3~--------------|-----------------|
    1 + 2 + 3 + 4 +   1 + 2 + 3 + 4 +   1 + 2 + 3 + 4 +   1 + 2 + 3 + 4 +

Gb|-----------------|-----------------|-----------------|-----------------||
Db|-----------------|-----------------|-----------------|-----------------||
Ab|-0-------0---0---|-0---0---0---0---|-0---0---0---0---|-0---0---0---0---||
Eb|-----------------|-----------------|--~--------------|-----------------||
    1 + 2 + 3 + 4 +   1 + 2 + 3 + 4 +   1 + 2 + 3 + 4 +   1 + 2 + 3 + 4 +
        
## -------------------------------- OUTRO ------------------------------ ##

Gb|-----------------|-----------------|-----------------|-----------------|
Db|-----------------|-----------------|-----------------|-----------------|
Ab|-2---2-2---2-2---|-2---2-2---2-2---|-----------------|-5---5-5---5-5---|
Eb|-----------------|-----------------|-3---3-3---3-3---|-----------------|
    1 + 2 + 3 + 4 +   1 + 2 + 3 + 4 +   1 + 2 + 3 + 4 +   1 + 2 + 3 + 4 +

Gb|-----------------|-----------------|-----------------|-----------------|
Db|-----------------|---~-------------|-----------------|-----------------|
Ab|-0---0-0---0-0---|-0---0-0---0-0---|-0---0-0---0-0---|-0---0-0---0-0---|
Eb|-----------------|-----------------|-----------------|-----------------|
    1 + 2 + 3 + 4 +   1 + 2 + 3 + 4 +   1 + 2 + 3 + 4 +   1 + 2 + 3 + 4 +

Gb|-----------------|-----------------|-----------------|-----------------|
Db|-----------------|-----------------|-----------------|-----------------|
Ab|-2---2-2---2-2---|-2---2-2---2-2---|-----------------|-5---5-5---5-5---|
Eb|-----------------|-----------------|-3---3-3---3-3---|-----------------|
    1 + 2 + 3 + 4 +   1 + 2 + 3 + 4 +   1 + 2 + 3 + 4 +   1 + 2 + 3 + 4 +

Gb|-----------------|-----------------|-----------------|-----------------|
Db|-----------------|---~-------------|-----------------|-----------------|
Ab|-0---0-0---0-0---|-0---0-0---0-0---|-0---4---4---0---|-7---5---4---5---|
Eb|-----------------|-----------------|-----------------|-----------------|
    1 + 2 + 3 + 4 +   1 + 2 + 3 + 4 +   1 + 2 + 3 + 4 +   1 + 2 + 3 + 4 +
    
Gb|-----------------|-----------------|-----------------|-----------------|
Db|-----------------|-----------------|-----------------|-----------------|
Ab|-2---2-2---2-2---|-2---2-2---2-2---|-----------------|-5---5-5---5-5---|
Eb|-----------------|-----------------|-3---3-3---3-3---|-----------------|
    1 + 2 + 3 + 4 +   1 + 2 + 3 + 4 +   1 + 2 + 3 + 4 +   1 + 2 + 3 + 4 +

Gb|-----------------|-----------------|-----------------|-----------------|
Db|-----------------|---~-------------|-----------------|-----------------|
Ab|-0---0-0---0-0---|-0---0-0---0-0---|-0---0-0---0-0---|-0---0-0-0-0-0-0-|
Eb|-----------------|-----------------|-----------------|-----------------|
    1 + 2 + 3 + 4 +   1 + 2 + 3 + 4 +   1 + 2 + 3 + 4 +   1 + 2 + 3 + 4 +
    
Gb|-----------------|-----------------|-----------------|-7~--------------|
Db|-4~--------------|-----------------|-----------------|-7~--------------|
Ab|-2~--------------|-----------------|-----------------|-5~--------------|
Eb|-----------------|-----------------|-3~--------------|-----------------|
    1 + 2 + 3 + 4 +   1 + 2 + 3 + 4 +   1 + 2 + 3 + 4 +   1 + 2 + 3 + 4 +

Gb|-6~--------------|-----------------|-----------------|-----------------||
Db|-7~--------------|-----------------|-----------------|-----------------||
Ab|-0~--------------|-----------------|-----------------|-----------------||
Eb|-----------------|-----------------|-----------------|-----------------||
    1 + 2 + 3 + 4 +   1 + 2 + 3 + 4 +   1 + 2 + 3 + 4 +   1 + 2 + 3 + 4 +

Suggest correction
Give kudos to tab author, rate the tab!
1 2 3 4 5
comments
print report bad tab
guest
You may want to rate the tab now too:
select rating
Wanna post a correction for this tab? Suggest correction