Oops, an error
Loading. Please wait.

The Eco-Terrorist In Me tab

version 2
version 2

Whole song

Interactive

7 views 3 this week
no commentswrite comment
1 2 3 4 5
3 more votes to show rating
add to favorites
×
Save as Personal and add changes to this tab that will be seen only by you. Learn more ›
×
You can save this tab as Personal to edit and correct it or add notes. All changes will be seen only by you. Learn more »
launch autoscroll
font size
0
reset
how to read this tab
guitar tuner
backing track
0:00
0:00
edit
Autoscroll
slow
fast
+/-
esc
set tempo
stop
Artist: Rise Against
Song: The Eco-Terrorist In Me
Album: The Black Market (2014)

Guitar 1 (Eb Ab Db Gb Bb eb) - 'Tim McIlrath - Distorion, Rhythm'
Guitar 2 (Eb Ab Db Gb Bb eb) - 'Zach Blair - Distortion, Rhythm'
Guitar 3 (Eb Ab Db Gb Bb eb) - 'Zach Blair - Distortion, Lead'

- This tab may be a bit crowded in some places, what with some sections having three
different guitar lines going at once. I've tried to include everything that's in the
official studio version.
- Make sure to check the guitar labels to know which guitar is doing what. The labels 
can change unexpectedly. 

[Intro]
4/4
   Gtr 1 & 2
    (W)                                  (W)
eb|------------------------------------|------------------------------------|
Bb|------------------------------------|------------------------------------|
Gb|------------------------------------|------------------------------------|
Db|------------------------------------|------------------------------------|
Ab|------------------------------------|------------------------------------|
Eb|------------------------------------|------------------------------------|
  |                                    |                                    |
  |Gtr 3                               |                                    |
  |  E   S E   S E   E   S E   S E     |  E   S E   S E   E   S E   S E     |
eb|--2---2-2---2-0---2---2-2---2-0-----|--2---2-2---2-0---0---0-0---0-0-----|
Bb|--0---0-0---0-0---0---0-0---0-0-----|--0---0-0---0-0---3---3-3---3-3-----|
Gb|------------------------------------|------------------4---4-4---4-4-----|
Db|------------------------------------|------------------------------------|
Ab|------------------------------------|------------------------------------|
Eb|------------------------------------|------------------------------------|


     W                                    W
eb|------------------------------------|------------------------------------|
Bb|------------------------------------|------------------------------------|
Gb|--4---------------------------------|------------------------------------|
Db|--4---------------------------------|------------------------------------|
Ab|--2---------------------------------|------------------------------------|
Eb|------------------------------------|--[Pick slide]----------------------|
  |                                    |                                    |
  |  E   S E   S E   E   S E   S E     |  E   S E   S E   E   S E   S E     |
eb|--2---2-2---2-0---2---2-2---2-0-----|--2---2-2---2-0---0---0-0---0-0-----|
Bb|--0---0-0---0-0---0---0-0---0-0-----|--0---0-0---0-0---3---3-3---3-3-----|
Gb|------------------------------------|------------------4---4-4---4-4-----|
Db|------------------------------------|------------------------------------|
Ab|------------------------------------|------------------------------------|
Eb|------------------------------------|------------------------------------|


[Verse 1]
   Gtr 1 & 2
     E   S E   S E   E   S E   S E        E   S E   S E   E   S E   S E     (x4)
eb|------------------------------------|------------------------------------|
Bb|o-----------------------------------|-----------------------------------o|[It's possible that Gtr 3 is also
Gb|--4---4-4---4-4---4---4-4---4-4-----|--4---4-4---4-4---7---7-7---7-7-----| playing the riff from the intro,
Db|--4---4-4---4-2---4---4-4---4-2-----|--4---4-4---4-2---5---5-5---5-5-----|    but if so then it's really
Ab|o-2---2-2---2-2---2---2-2---2-2-----|--2---2-2---2-2---5---5-5---5-5----o|              faint]
Eb|------------------------------------|------------------------------------|


[Pre-Chorus 1]
   Gtr 1
     E   S E   S E   E   S E   S E        E   S E   S E   E   S E   S E
eb|------------------------------------|------------------------------------|
Bb|------------------------------------|------------------------------------|
Gb|--7---7-7---7-7---7---7-7---7-7-----|-------------------9---9-9---9-9----|
Db|--7---7-7---7-7---7---7-7---7-7-----|---7---7-7---7-7---9---9-9---9-9----|
Ab|--5---5-5---5-5---5---5-5---5-5-----|---7---7-7---7-7---7---7-7---7-7----|
Eb|------------------------------------|---5---5-5---5-5--------------------|
  |                                    |                                    |
  |Gtr 2                               |                                    |
  |  E   S E   S E   E   S E   S E     |  E   S E   S E   E   S E   S E     |
eb|------------------------------------|------------------------------------|
Bb|------------------------------------|------------------------------------|
Gb|--7---7-7---7-7---7---7-7---7-7-----|------------------4---4-4---4-4-----|
Db|--7---7-7---7-7---7---7-7---7-7-----|--7---7-7---7-7---2---2-2---2-2-----|
Ab|--5---5-5---5-5---5---5-5---5-5-----|--7---7-7---7-7---2---2-2---2-2-----|
Eb|------------------------------------|--5---5-5---5-5---------------------|


     E   S S S S S S S S S S S S S S      S S S S S S S S S S S S S S S S
eb|------------------------------------|------------------------------------|
Bb|------------------------------------|------------------------------------|
Gb|------------------------------------|------------------------------------|
Db|--9---------------------------------|------------------------------------|
Ab|--9---------------------------------|------------------------------------|
Eb|--7---7-7-7-7-7-7-7-7-7-7-7-7-7-7---|--7-7-7-7-7-7-7-7-7-7-7-7-7-7-7-7---|
PM|      . . . . . . . . . . . . . .   |  . . . . . . . . . . . . . . . .   |
  |                                    |                                    |
  |  H               H                 |  H               H                 |
eb|------------------------------------|------------------------------------|
Bb|------------------------------------|------------------------------------|
Gb|--4---------------6-----------------|--7---------------9-----------------|
Db|--x---------------x-----------------|--x---------------x-----------------|
Ab|--2---------------4-----------------|--5---------------7-----------------|
Eb|------------------------------------|------------------------------------|


     E   S E   S E   E   S E   S E        E   S E   S E   E   S E   S E
eb|------------------------------------|------------------------------------|
Bb|------------------------------------|------------------------------------|
Gb|--7---7-7---7-7---7---7-7---7-7-----|-------------------9---9-9---9-9----|
Db|--7---7-7---7-7---7---7-7---7-7-----|---7---7-7---7-7---9---9-9---9-9----|
Ab|--5---5-5---5-5---5---5-5---5-5-----|---7---7-7---7-7---7---7-7---7-7----|
Eb|------------------------------------|---5---5-5---5-5--------------------|
  |                                    |                                    |
  |  E   S E   S E   E   S E   S E     |  E   S E   S E   E   S E   S E     |
eb|------------------------------------|------------------------------------|
Bb|------------------------------------|------------------------------------|
Gb|--7---7-7---7-7---7---7-7---7-7-----|------------------4---4-4---4-4-----|
Db|--7---7-7---7-7---7---7-7---7-7-----|--7---7-7---7-7---2---2-2---2-2-----|
Ab|--5---5-5---5-5---5---5-5---5-5-----|--7---7-7---7-7---2---2-2---2-2-----|
Eb|------------------------------------|--5---5-5---5-5---------------------|


     E    S  E  (E.)   E    S  E  (E.)        Q       E   E   E   E   E   E   
eb|----------------------------------------|------------------------------------|
Bb|----------------------------------------|------------------------------------|
Gb|----------------------------------------|------------------------------------|
Db|--9----9--9---------9----9--9-----------|--9-------9---9---9---9---9---9-----|
Ab|--9----9--9---------9----9--9-----------|--9-------9---9---9---9---9---9-----|
Eb|--7----7--7---------7----7--7-----------|--7-------7---7---7---7---7---7-----|
  |                                        |                                    |
  |  E    S  E  (E.)   E    S  E  (E.)     |  Q       E   E   E   E   E   E     |
eb|----------------------------------------|------------------------------------|
Bb|----------------------------------------|------------------------------------|
Gb|--11---11-11--------11---11-11----------|--11------11--11--11--11--11--11----|
Db|--x----x--x---------x----x--x-----------|--x-------x---x---x---x---x---x-----|
Ab|--9----9--9---------9----9--9-----------|--9-------9---9---9---9---9---9-----|
Eb|----------------------------------------|------------------------------------|


     Q   Q   E E E E     +E E E E E E E E      Q   Q   E E E E     +E E E E E E E E
eb|--------------------|--------------------|--0-----------------|--------------------|
Bb|--------------------|--------------------|--0---0---0-0-0-----|--------------------|
Gb|--7---7---7-7-7-----|--------------------|--x---x---x-x-x-----|--------------------|
Db|--7---7---7-7-7-7---|----7-7-7-7-7-7-7---|--2---2---2-2-2-----|--------------------|
Ab|--5---5---5-5-5-7---|----7-7-7-7-7-7-7---|--2---2---2-2-2-5---|----5-5-5-5-5-5-5---|
Eb|----------------5---|----5-5-5-5-5-5-5---|--0---0---0-0-0-2---|----2-2-2-2-2-2-2---|
  |                    |                    |                    |                    |
  |  Q   Q   E E E E   | +E E E E E E E E   |  Q   Q   E E E E   | +E E E E E E E E   |
eb|--------------------|--------------------|--------------------|--------------------|
Bb|--------------------|--------------------|--------------------|--------------------|
Gb|--7---7---7-7-7-----|--------------------|--------------------|--------------------|
Db|--7---7---7-7-7-7---|----7-7-7-7-7-7-7---|--2---2---2-2-2-----|--------------------|
Ab|--5---5---5-5-5-7---|----7-7-7-7-7-7-7---|--2---2---2-2-2-5---|----5-5-5-5-5-5-5---|
Eb|----------------5---|----5-5-5-5-5-5-5---|--0---0---0-0-0-2---|----2-2-2-2-2-2-2---|


     Q   Q   E E E E      E E E E E E E E
eb|--3-----------------|--------------------|
Bb|--3---3-------------|--------------------|
Gb|--0---0---0-0-0-0---|--------------------|
Db|--0---0---0-0-0-0---|--7-7-7-7-7-7-7-7---|
Ab|--x---x---x-x-x-x---|--7-7-7-7-7-7-7-7---|
Eb|--3---3---3-3-3-3---|--5-5-5-5-5-5-5-5---|
  |                    |                    |
  |  Q   Q   E E E E   |  E E E E E E E E   |
eb|--------------------|--------------------|
Bb|--------------------|--------------------|
Gb|--------------------|--------------------|
Db|--5---5---5-5-5-5---|--7-7-7-7-7-7-7-7---|
Ab|--5---5---5-5-5-5---|--7-7-7-7-7-7-7-7---|
Eb|--3---3---3-3-3-3---|--5-5-5-5-5-5-5-5---|


[Chorus 1]
   Gtr 1
     E    S  E    S  E    E    S  E    S  E        E    S  E    S  E    E    S  E    S  E
eb|---------------------------------------------|---------------------------------------------|
Bb|o--------------------------------------------|---------------------------------------------|
Gb|--4----4--4----4--4----4----4--4----4--4-----|-----------------------7----7--7----7--7-----|
Db|--4----4--4----4--4----4----4--4----4--4-----|--5----5--5----5--5----7----7--7----7--7-----|
Ab|o-2----2--2----2--2----2----2--2----2--2-----|--5----5--5----5--5----5----5--5----5--5-----|
Eb|---------------------------------------------|--3----3--3----3--3--------------------------|
  |                                             |                                             |
  |Gtr 2                                        |                                             |
  |  E    S  E    S  E    E    S  E    S  E     |  E    S  E    S  E    E    S  E    S  E     |
eb|---------------------------------------------|---------------------------------------------|
Bb|o--------------------------------------------|---------------------------------------------|
Gb|--4----4--4----4--4----4----4--4----4--4-----|-----------------------7----7--7----7--7-----|
Db|--4----4--4----4--4----4----4--4----4--4-----|--5----5--5----5--5----7----7--7----7--7-----|
Ab|o-2----2--2----2--2----2----2--2----2--2-----|--5----5--5----5--5----5----5--5----5--5-----|
Eb|---------------------------------------------|--3----3--3----3--3--------------------------|
  |                                             |                                             |
  |Gtr 3                                        |                                             |
  |  E    S  E    S  E    E    S  E    S  E     |  E    S  E    S  E    E    S  E    S  E     |
eb|---------------------------------------------|---------------------------------------------|
Bb|o--------------------------------------------|---------------------------------------------|
Gb|--11---11-11---11-11---11---11-11---11-11----|--12---12-12---12-12---11---11-11---11-11----|
Db|--x----x--x----x--x----x----x--x----x--x-----|--x----x--x----x--x----x----x--x----x--x-----|
Ab|o-9----9--9----9--9----9----9--9----9--9-----|--10---10-10---10-10---9----9--9----9--9-----|
Eb|---------------------------------------------|---------------------------------------------|


     E   E   E   E   E   E   E   E        E   E   E   E   E   E   E   E     (x2)
eb|------------------------------------|------------------------------------|
Bb|--12------12------12------12--------|--12------12------12------12-------o|
Gb|------14------14------14------14----|------14------14------14------14----|
Db|------------------------------------|------------------------------------|
Ab|------------------------------------|-----------------------------------o|
Eb|------------------------------------|------------------------------------|
  |                                    |                                    |
  |  E   S E   S E   E   S E   S E     |  E   S E   S E   E   S E   S E     |
eb|------------------------------------|------------------------------------|
Bb|------------------------------------|-----------------------------------o|
Gb|------------------------------------|------------------------------------|
Db|--7---7-7---7-7---7---7-7---7-7-----|--7---7-7---7-7---7---7-7---7-7-----|
Ab|--7---7-7---7-7---7---7-7---7-7-----|--7---7-7---7-7---7---7-7---7-7----o|
Eb|--5---5-5---5-5---5---5-5---5-5-----|--5---5-5---5-5---5---5-5---5-5-----|
  |                                    |                                    |
  |  E   S E   S E   E   S E   S E     |  E   S E   S E   E   S E   S E     |
eb|------------------------------------|------------------------------------|
Bb|------------------------------------|-----------------------------------o|
Gb|--9---9-9---9-9---9---9-9---9-9-----|--9---9-9---9-9---9---9-9---9-9-----|
Db|--x---x-x---x-x---x---x-x---x-x-----|--x---x-x---x-x---x---x-x---x-x-----|
Ab|--7---7-7---7-7---7---7-7---7-7-----|--7---7-7---7-7---7---7-7---7-7----o|
Eb|------------------------------------|------------------------------------|

   Gtr 1 & 2
     E  E  E  E  E  E  E  E     +E  E  E  E  E  E  E  E      E  E (Q)    E  E (Q)        Q     E E E E E E
eb|---------------------------|---------------------------|---------------------------|----------------------|
Bb|---------------------------|---------------------------|---------------------------|----------------------|
Gb|---------------------------|---------------------------|---------------------------|----------------------|
Db|--5--5--5--5--5--5--5--7---|-----7--7--7--7--7--7--7---|--9--9--------7--7---------|--5-----5-5-5-5-5-5---|
Ab|--5--5--5--5--5--5--5--7---|-----7--7--7--7--7--7--7---|--9--9--------7--7---------|--5-----5-5-5-5-5-5---|
Eb|--3--3--3--3--3--3--3--5---|-----5--5--5--5--5--5--5---|--7--7--------5--5---------|--3-----3-3-3-3-3-3---|
  |                           |                           |                           |                      |
  |Gtr 3                      |                           |                           |                      |
  |  E  E  E  E  E  E  E  E   |  E  E  E  E  E  E  E  E   |  E  E  E  E  E  E  E  E   |  E  E  H.            |
eb|---------------------------|---------------------------|---------------------------|----------------------|
Bb|--15-15-14-14-------15-15--|--14-14-------15-15-14-----|--15-15-14-14--------------|----------------------|
Gb|--------------14-14--------|--------14-14----------14--|--------------14-14-14-----|--14-16-14~-----------|
Db|---------------------------|---------------------------|-----------------------16--|----------------------|
Ab|---------------------------|---------------------------|---------------------------|----------------------|
Eb|---------------------------|---------------------------|---------------------------|----------------------|


     E    S  E    S  E    E    S  E    S  E        E    S  E    S  E    E    S  E    S  E
eb|---------------------------------------------|---------------------------------------------|
Bb|---------------------------------------------|---------------------------------------------|
Gb|---------------------------------------------|---------------------------------------------|
Db|--5----5--5----5--5----5----5--5----5--5-----|--7----7--7----7--7----7----7--7----7--7-----|
Ab|--5----5--5----5--5----5----5--5----5--5-----|--7----7--7----7--7----7----7--7----7--7-----|
Eb|--3----3--3----3--3----3----3--3----3--3-----|--5----5--5----5--5----5----5--5----5--5-----|
  |                                             |                                             |
  |  E    S  E    S  E    E    S  E    S  E     |  E    S  E    S  E    E    S  E    S  E     |
eb|---------------------------------------------|---------------------------------------------|
Bb|--12---12-12---12-12---12---12-12---12-12----|--10---10-10---10-10---10---10-10---10-10----|
Gb|--12---12-12---12-12---12---12-12---12-12----|--9----9--9----9--9----9----9--9----9--9-----|
Db|---------------------------------------------|---------------------------------------------|
Ab|---------------------------------------------|---------------------------------------------|
Eb|---------------------------------------------|---------------------------------------------|


     W                                   +W
eb|------------------------------------|------------------------------------|
Bb|------------------------------------|------------------------------------|
Gb|--4---------------------------------|------------------------------------|
Db|--4---------------------------------|------------------------------------|
Ab|--2---------------------------------|------------------------------------|
Eb|------------------------------------|------------------------------------|
  |                                    |                                    |
  |  E   S E   S E   E   S E   S E     |  E   S E   S E   E   S E   S E     |
eb|--2---2-2---2-0---2---2-2---2-0-----|--2---2-2---2-0---0---0-0---0-0-----|
Bb|--0---0-0---0-0---0---0-0---0-0-----|--0---0-0---0-0---3---3-3---3-3-----|
Gb|------------------------------------|------------------4---4-4---4-4-----|
Db|------------------------------------|------------------------------------|
Ab|------------------------------------|------------------------------------|
Eb|------------------------------------|------------------------------------|


[Verse 2]
   Gtr 1
     W                                   +Wx3
eb|------------------------------------|------------------------------------|
Bb|------------------------------------|------------------------------------|
Gb|--4---------------------------------|------------------------------------|
Db|--x---------------------------------|------------------------------------|
Ab|--2---------------------------------|------------------------------------|
Eb|------------------------------------|------------------------------------|
  |                                    |                                    |
  |Gtr 2                               |                                    |
  |  W                                 | +Wx3                               |
eb|------------------------------------|------------------------------------|
Bb|------------------------------------|------------------------------------|
Gb|--4---------------------------------|------------------------------------|
Db|--4---------------------------------|------------------------------------|
Ab|--2---------------------------------|------------------------------------|
Eb|------------------------------------|------------------------------------|


     S S S S S S S S S S S S S S S S      S S S S S S S S S S S S S S S S   (x2)
eb|------------------------------------|------------------------------------|
Bb|o-----------------------------------|-----------------------------------o| [Slowly bend the G string as
Gb|--4-4-4-4-4-4-4-4-4-4-4-4-4-4-4-4---|--4-4-4-4-4-4-4-4-4-4-4-4-4-4-4-4---|      you play this part]
Db|------------------------------------|------------------------------------|
Ab|o-----------------------------------|-----------------------------------o|
Eb|------------------------------------|------------------------------------|
  |                                    |                                    |
  |                                    |                                    |
eb|------------------------------------|------------------------------------|
Bb|o------------[The sound here is made by sliding the edge ---------------o|
Gb|--------------- of your pick across the strings by the ------------------|
Db|------------------------------ pick-ups]---------------------------------|
Ab|o-----------------------------------|-----------------------------------o|
Eb|------------------------------------|------------------------------------|


[Pre-Chorus 2]
   Gtr 1 & 2
     Q   E E E E Q        Q   E E E E E E      Q   E E E E Q        Q   E E E E E E
eb|--------------------|--------------------|--------------------|--------------------|
Bb|--------------------|--------------------|--------------------|--------------------|
Gb|--7---7-7-7-7-7-----|----------9-9-9-9---|--------------------|--------------------|
Db|--7---7-7-7-7-7-----|--7---7-7-9-9-9-9---|--9---9-9-9-9-9\----|--4---4-4-4-4-4/5---|
Ab|--5---5-5-5-5-5-----|--7---7-7-7-7-7-7---|--9---9-9-9-9-9\----|--4---4-4-4-4-4/5---|
Eb|--------------------|--5---5-5-----------|--7---7-7-7-7-7\----|--2---2-2-2-2-2/3---|
PM|      . . . .       |      . . . . . .   |      . . . .       |      . . . .       |

     Q   E E E E Q        Q   E E E E E E
eb|--------------------|--------------------|
Bb|--------------------|--------------------|
Gb|--------------------|--------------------|
Db|--5---5-5-5-5-5-----|--7---7-7-7-7-7-7---|
Ab|--5---5-5-5-5-5-----|--7---7-7-7-7-7-7---|
Eb|--3---3-3-3-3-3-----|--5---5-5-5-5-5-5---|
PM|      . . . .       |                    |


[Chorus 2]
   Gtr 1
     E    S  E    S  E    E    S  E    S  E        E    S  E    S  E    E    S  E    S  E
eb|---------------------------------------------|---------------------------------------------|
Bb|o--------------------------------------------|---------------------------------------------|
Gb|--4----4--4----4--4----4----4--4----4--4-----|-----------------------7----7--7----7--7-----|
Db|--4----4--4----4--4----4----4--4----4--4-----|--5----5--5----5--5----7----7--7----7--7-----|
Ab|o-2----2--2----2--2----2----2--2----2--2-----|--5----5--5----5--5----5----5--5----5--5-----|
Eb|---------------------------------------------|--3----3--3----3--3--------------------------|
  |                                             |                                             |
  |Gtr 2                                        |                                             |
  |  E    S  E    S  E    E    S  E    S  E     |  E    S  E    S  E    E    S  E    S  E     |
eb|---------------------------------------------|---------------------------------------------|
Bb|o--------------------------------------------|---------------------------------------------|
Gb|--4----4--4----4--4----4----4--4----4--4-----|-----------------------7----7--7----7--7-----|
Db|--4----4--4----4--4----4----4--4----4--4-----|--5----5--5----5--5----7----7--7----7--7-----|
Ab|o-2----2--2----2--2----2----2--2----2--2-----|--5----5--5----5--5----5----5--5----5--5-----|
Eb|---------------------------------------------|--3----3--3----3--3--------------------------|
  |                                             |                                             |
  |Gtr 3                                        |                                             |
  |  E    S  E    S  E    E    S  E    S  E     |  E    S  E    S  E    E    S  E    S  E     |
eb|---------------------------------------------|---------------------------------------------|
Bb|o--------------------------------------------|---------------------------------------------|
Gb|--11---11-11---11-11---11---11-11---11-11----|--12---12-12---12-12---11---11-11---11-11----|
Db|--x----x--x----x--x----x----x--x----x--x-----|--x----x--x----x--x----x----x--x----x--x-----|
Ab|o-9----9--9----9--9----9----9--9----9--9-----|--10---10-10---10-10---9----9--9----9--9-----|
Eb|---------------------------------------------|---------------------------------------------|


     E   E   E   E   E   E   E   E        E   E   E   E   E   E   E   E     (x2)
eb|------------------------------------|------------------------------------|
Bb|--12------12------12------12--------|--12------12------12------12-------o|
Gb|------14------14------14------14----|------14------14------14------14----|
Db|------------------------------------|------------------------------------|
Ab|------------------------------------|-----------------------------------o|
Eb|------------------------------------|------------------------------------|
  |                                    |                                    |
  |  E   S E   S E   E   S E   S E     |  E   S E   S E   E   S E   S E     |
eb|------------------------------------|------------------------------------|
Bb|------------------------------------|-----------------------------------o|
Gb|------------------------------------|------------------------------------|
Db|--7---7-7---7-7---7---7-7---7-7-----|--7---7-7---7-7---7---7-7---7-7-----|
Ab|--7---7-7---7-7---7---7-7---7-7-----|--7---7-7---7-7---7---7-7---7-7----o|
Eb|--5---5-5---5-5---5---5-5---5-5-----|--5---5-5---5-5---5---5-5---5-5-----|
  |                                    |                                    |
  |  E   S E   S E   E   S E   S E     |  E   S E   S E   E   S E   S E     |
eb|------------------------------------|------------------------------------|
Bb|------------------------------------|-----------------------------------o|
Gb|--9---9-9---9-9---9---9-9---9-9-----|--9---9-9---9-9---9---9-9---9-9-----|
Db|--x---x-x---x-x---x---x-x---x-x-----|--x---x-x---x-x---x---x-x---x-x-----|
Ab|--7---7-7---7-7---7---7-7---7-7-----|--7---7-7---7-7---7---7-7---7-7----o|
Eb|------------------------------------|------------------------------------|

   Gtr 1 & 2
     E  E  E  E  E  E  E  E     +E  E  E  E  E  E  E  E      E  E (Q)    E  E (Q)        Q     E E E E E E
eb|---------------------------|---------------------------|---------------------------|----------------------|
Bb|---------------------------|---------------------------|---------------------------|----------------------|
Gb|---------------------------|---------------------------|---------------------------|----------------------|
Db|--5--5--5--5--5--5--5--7---|-----7--7--7--7--7--7--7---|--9--9--------7--7---------|--5-----5-5-5-5-5-5---|
Ab|--5--5--5--5--5--5--5--7---|-----7--7--7--7--7--7--7---|--9--9--------7--7---------|--5-----5-5-5-5-5-5---|
Eb|--3--3--3--3--3--3--3--5---|-----5--5--5--5--5--5--5---|--7--7--------5--5---------|--3-----3-3-3-3-3-3---|
  |                           |                           |                           |                      |
  |Gtr 3                      |                           |                           |                      |
  |  E  E  E  E  E  E  E  E   |  E  E  E  E  E  E  E  E   |  E  E  E  E  E  E  E  E   |  E  E  H.            |
eb|---------------------------|---------------------------|---------------------------|----------------------|
Bb|--15-15-14-14-------15-15--|--14-14-------15-15-14-----|--15-15-14-14--------------|----------------------|
Gb|--------------14-14--------|--------14-14----------14--|--------------14-14-14-----|--14-16-14~-----------|
Db|---------------------------|---------------------------|-----------------------16--|----------------------|
Ab|---------------------------|---------------------------|---------------------------|----------------------|
Eb|---------------------------|---------------------------|---------------------------|----------------------|

   Gtr 1 & 2
     E E E E E E E E      E E E E E E E E      E E E E E E E E      E E E E E E E E
eb|--------------------|--------------------|--------------------|--------------------|
Bb|--------------------|--------------------|--------------------|--------------------|
Gb|--------------------|--------------------|--------------------|--------------------|
Db|--5-5-5-5-5-5-5-5---|--5-5-5-5-5-5-5-5---|--7-7-7-7-7-7-7-7---|--7-7-7-7-7-7-7-7---|
Ab|--5-5-5-5-5-5-5-5---|--5-5-5-5-5-5-5-5---|--7-7-7-7-7-7-7-7---|--7-7-7-7-7-7-7-7---|
Eb|--3-3-3-3-3-3-3-3---|--3-3-3-3-3-3-3-3---|--5-5-5-5-5-5-5-5---|--5-5-5-5-5-5-5-5---|


[Interlude]
   Gtr 1 & 2
     Q     Q     Q     Q         Q     Q     Q     Q        Q   Q   Q   Q         Q     Q     Q     Q
eb|---------------------------|--------------------------|---------------------|--------------------------|
Bb|---------------------------|--------------------------|---------------------|--------------------------|
Gb|---------------------------|--------------------------|---------------------|--------------------------|
Db|--5-----5-----5-----5------|--5-----5-----5-----5-----|--2---2---2---2------|--2-----2-----2-----2-----|
Ab|--5-----5-----5-----5------|--5-----5-----5-----5-----|--2---2---2---2------|--2-----2-----2-----2-----|
Eb|--3-----3-----3-----3------|--3-----3-----3-----3-----|--0---0---0---0------|--0-----0-----0-----0-----|
  |                           |                          |                     |                          |
  |Gtr 3                      |                          |                     |                          |
  |  Q     Q     E  E  E  E   |  E  E  E  E  Q     Q     |  Q   Q   Q   E  E   |  E  E  E  E  Q     Q     |
eb|---------------------------|--------------------------|---------------------|--------------------------|
eb|---------------------------|--------------------------|---------------------|--------------------------|
Gb|--12----12----12-12-12-12--|--12-12-11-11-11----7-----|--7--/9---9---12-12--|--12-12-11-11-11----7-----|
Db|--x-----x-----x--x--x--x---|--x--x--x--x--x-----x-----|--x---x---x---x--x---|--x--x--x--x--x-----x-----|
Ab|--10----10----10-10-10-10--|--10-10-9--9--9-----5-----|--5--/7---7---10-10--|--10-10-9--9--9-----5-----|
Eb|---------------------------|--------------------------|---------------------|--------------------------|


     Q   Q   Q   Q        Q   Q   Q   Q        Q   Q   Q   Q        Q     Q     Q     Q
eb|--------------------|--------------------|--------------------|--------------------------|
Bb|--------------------|--------------------|--------------------|--------------------------|
Gb|--4---4---4---4-----|--4---4---4---4-----|--7---7---7---7-----|--7-----7-----7-----7-----|
Db|--4---4---4---4-----|--4---4---4---4-----|--7---7---7---7-----|--7-----7-----7-----7-----|
Ab|--2---2---2---2-----|--2---2---2---2-----|--5---5---5---5-----|--5-----5-----5-----5-----|
Eb|--------------------|--------------------|--------------------|--------------------------|
  |                    |                    |                    |                          |
  |  Q   Q   Q   Q     |  Q   Q   Q   Q     |  Q   E E E E E E   |  Q     E  E  E  E  Q     |
eb|--------------------|--------------------|--------------------|--------------------------|
Bb|--------------------|--------------------|--------------------|--------------------------|
Gb|--7---4---4---4-----|--4---6---7---6-----|--6---7-7-7-7-9-9---|--9-----11-11-11-11-11/---|
Db|--x---x---x---x-----|--x---x---x---x-----|--x---x-x-x-x-x-x---|--x-----x--x--x--x--x-----|
Ab|--5---2---2---2-----|--2---4---5---4-----|--4---5-5-5-5-7-7---|--7-----9--9--9--9--9/----|
Eb|--------------------|--------------------|--------------------|--------------------------|


     Q     Q     Q     Q        Q   Q   Q   Q        Q     Q     Q     Q         Q   Q   Q   Q
eb|--------------------------|--------------------|---------------------------|--------------------|
eb|--------------------------|--------------------|---------------------------|--------------------|
Gb|--------------------------|--------------------|---------------------------|--------------------|
Db|--5-----5-----5-----5-----|--5---5---5---5-----|--7-----7-----7-----7------|--7---7---7---7-----|
Ab|--5-----5-----5-----5-----|--5---5---5---5-----|--7-----7-----7-----7------|--7---7---7---7-----|
Eb|--3-----3-----3-----3-----|--3---3---3---3-----|--5-----5-----5-----5------|--5---5---5---5-----|
  |                          |                    |                           |                    |
  |  Q     E  E  E  E  Q     |  Q   Q   E E Q     |  Q     E  E  E  E  E  E   |  Q   Q   Q   Q     |
eb|--------------------------|--------------------|---------------------------|--------------------|
Bb|--------------------------|--------------------|-----------------------15--|--15--14--12--------|
Gb|--14----14-14-14-14-14----|--7---7---7-7-7-----|--14----14-14-14-14-14-14--|--14--14--14--14----|
Db|--x-----x--x--x--x--x-----|--x---x---x-x-x-----|--x-----x--x--x--x--x--x---|--x-----------------|
Ab|--12----12-12-12-12-12----|--5---5---5-5-5-----|--12----12-12-12-12-12-12--|--12----------------|
Eb|--------------------------|--------------------|---------------------------|--------------------|


[Chorus Build-Up]
   Gtr 1 & 2
     W                   +W                   +W                   +W
eb|--------------------|--------------------|--------------------|--------------------|
Bb|--------------------|--------------------|--------------------|--------------------|
Gb|--------------------|--------------------|--------------------|--------------------|
Db|--9-----------------|--------------------|--------------------|--------------------|
Ab|--9-----------------|--------------------|--------------------|--------------------|
Eb|--7-----------------|--------------------|--------------------|--------------------|
  |                    |                    |                    |                    |
  |Gtr 3               |                    |                    |                    |
  |  W                 | +W                 | +W                 |  H       H         |
eb|--------------------|--------------------|--------------------|--------------------|
Bb|--12----------------|--------------------|--------------------|-[7]----------------|
Gb|--14----------------|--------------------|--------------------|---------[7]--------|
Db|--------------------|--------------------|--------------------|--------------------|
Ab|--------------------|--------------------|--------------------|--------------------|
Eb|--------------------|--------------------|--------------------|--------------------|

   Gtr 2
     W                   +W                   +W                   +W
eb|--7-----------------|--------------------|--------------------|--------------------|
Bb|--7-----------------|--------------------|--------------------|--------------------|
Gb|--7-----------------|--------------------|--------------------|--------------------|
Db|--9-----------------|--------------------|--------------------|--------------------|
Ab|--9-----------------|--------------------|--------------------|--------------------|
Eb|--7-----------------|--------------------|--------------------|--------------------|

   Gtr 1 & 2
     Q  (H.)              W                    Q   E E E E E E      E E E E E E E E
eb|--------------------|--------------------|--------------------|--------------------|
Bb|--------------------|--------------------|--------------------|--------------------|  [Gtr 3 does a pick
Gb|--------------------|--------------------|--------------------|--------------------|   slide on the 4th
Db|--9-----------------|--5-----------------|--7---7-7-7-7-7-7---|--7-7-7-7-7-7-7-7---|         bar]
Ab|--9-----------------|--5-----------------|--7---7-7-7-7-7-7---|--7-7-7-7-7-7-7-7---|
Eb|--7-----------------|--3-----------------|--5---5-5-5-5-5-5---|--5-5-5-5-5-5-5-5---|


[Chorus 3]
   Gtr 1
     E    S  E    S  E    E     S  E    S  E        E   S E   S E   E   S E   S E
eb|----------------------------------------------|------------------------------------|
Bb|----------------------------------------------|------------------------------------|
Gb|--4----4--4----4--4----4-----4--4----4--4-----|------------------7---7-7---7-7-----|
Db|--4----4--4----4--4----4-----4--4----4--4-----|--5---5-5---5-5---7---7-7---7-7-----|
Ab|--2----2--2----2--2----2-----2--2----2--2-----|--5---5-5---5-5---5---5-5---5-5-----|
Eb|----------------------------------------------|--3---3-3---3-3---------------------|
  |                                              |                                    |
  |Gtr 2                                         |                                    |
  |  E    S  E    S  E    E     S  E    S  E     |  E   S E   S E   E   S E   S E     |
eb|----------------------------------------------|------------------------------------|
Bb|----------------------------------------------|------------------------------------|
Gb|--4----4--4----4--4----4-----4--4----4--4-----|------------------7---7-7---7-7-----|
Db|--4----4--4----4--4----4-----4--4----4--4-----|--5---5-5---5-5---7---7-7---7-7-----|
Ab|--2----2--2----2--2----2-----2--2----2--2-----|--5---5-5---5-5---5---5-5---5-5-----|
Eb|----------------------------------------------|--3---3-3---3-3---------------------|
  |                                              |                                    |
  |Gtr 3                                         |                                    |
  |  E    S  E    S  E    E     S  E    S  E     |  E.    E.    E   E.    E.    E     |
eb|----------------------------------------------|------------------------------------|
Bb|--12---12-12---12-12---------12-12---12-12----|------------------------------------|
Gb|-----------------------14b16------------------|--14b16-14----11--12----11----9-----|
Db|----------------------------------------------|------------------------------------|
Ab|----------------------------------------------|------------------------------------|
Eb|----------------------------------------------|------------------------------------|


     E   E   E   E   E   E   E   E        E   E   E   E   E   E   E   E
eb|------------------------------------|------------------------------------|
Bb|--12------12------12------12--------|--12------12------12------12--------|
Gb|------14------14------14------14----|------14------14------14------14----|
Db|------------------------------------|------------------------------------|
Ab|------------------------------------|------------------------------------|
Eb|------------------------------------|------------------------------------|
  |                                    |                                    |
  |  E   S E   S E   E   S E   S E     |  E   S E   S E   E   S E   S E     |
eb|------------------------------------|------------------------------------|
Bb|------------------------------------|------------------------------------|
Gb|------------------------------------|------------------------------------|
Db|--7---7-7---7-7---7---7-7---7-7-----|--7---7-7---7-7---7---7-7---7-7-----|
Ab|--7---7-7---7-7---7---7-7---7-7-----|--7---7-7---7-7---7---7-7---7-7-----|
Eb|--5---5-5---5-5---5---5-5---5-5-----|--5---5-5---5-5---5---5-5---5-5-----|
  |                                    |                                    |
  |  E.    E.    E   H                 | +W                                 |
eb|------------------------------------|------------------------------------|
Bb|------------------------------------|------------------------------------|
Gb|--11----11h12-11--9~----------------|------------------------------------|
Db|------------------------------------|------------------------------------|
Ab|------------------------------------|------------------------------------|
Eb|------------------------------------|------------------------------------|


     E    S  E    S  E    E     S  E    S  E        E   S E   S E   E   S E   S E
eb|----------------------------------------------|------------------------------------|
Bb|----------------------------------------------|------------------------------------|
Gb|--4----4--4----4--4----4-----4--4----4--4-----|------------------7---7-7---7-7-----|
Db|--4----4--4----4--4----4-----4--4----4--4-----|--5---5-5---5-5---7---7-7---7-7-----|
Ab|--2----2--2----2--2----2-----2--2----2--2-----|--5---5-5---5-5---5---5-5---5-5-----|
Eb|----------------------------------------------|--3---3-3---3-3---------------------|
  |                                              |                                    |
  |  E    S  E    S  E    E     S  E    S  E     |  E   S E   S E   E   S E   S E     |
eb|----------------------------------------------|------------------------------------|
Bb|----------------------------------------------|------------------------------------|
Gb|--4----4--4----4--4----4-----4--4----4--4-----|------------------7---7-7---7-7-----|
Db|--4----4--4----4--4----4-----4--4----4--4-----|--5---5-5---5-5---7---7-7---7-7-----|
Ab|--2----2--2----2--2----2-----2--2----2--2-----|--5---5-5---5-5---5---5-5---5-5-----|
Eb|----------------------------------------------|--3---3-3---3-3---------------------|
  |                                              |                                    |
  |                                              |  E.    E.    E   E.    E.    E     |
eb|----------------------------------------------|------------------12----------12----|
Bb|--12---12-12---12-12---------12---------12----|--15----14----15--------15----------|
Gb|-----------------------14b16------14b16-------|------------------------------------|
Db|----------------------------------------------|------------------------------------|
Ab|----------------------------------------------|------------------------------------|
Eb|----------------------------------------------|------------------------------------|


     E   E   E   E   E   E   E   E        E   E   E   E   E     E     E     E
eb|------------------------------------|--------------------------------------------|
Bb|--12------12------12------12--------|--12------12------12----------12------------|
Gb|------14------14------14------14----|------14------14--------14----------14------|
Db|------------------------------------|--------------------------------------------|
Ab|------------------------------------|--------------------------------------------|
Eb|------------------------------------|--------------------------------------------|
  |                                    |                                            |
  |  E   S E   S E   E   S E   S E     |  E   S E   S E   E     S  E     S  E       |
eb|------------------------------------|--------------------------------------------|
Bb|------------------------------------|--------------------------------------------|
Gb|------------------------------------|--------------------------------------------|
Db|--7---7-7---7-7---7---7-7---7-7-----|--7---7-7---7-7---7-----7--7-----7--7-------|
Ab|--7---7-7---7-7---7---7-7---7-7-----|--7---7-7---7-7---7-----7--7-----7--7-------|
Eb|--5---5-5---5-5---5---5-5---5-5-----|--5---5-5---5-5---5-----5--5-----5--5-------|
  |                                    |                                            |
  |  E.    E.    E   H                 | +H               S  S  S  S  S  S  S  S    |
eb|--14----14h15-14--12~---------------|--------------------------------------------|
Bb|------------------------------------|---------------------------------------12---| [This bar and the next
Gb|------------------------------------|------------------------------11-12-14------|  may be difficult for
Db|------------------------------------|---------------------11-12-14---------------|    less experienced
Ab|------------------------------------|------------------14------------------------|         players]
Eb|------------------------------------|--------------------------------------------|


     E     S  E     S  E     E     S  E     S  E         E   S E   S E   E     S E   S E
eb|---------------------------------------------------|--------------------------------------|
Bb|---------------------------------------------------|--------------------------------------|
Gb|--4-----4--4-----4--4-----4-----4--4-----4--4------|------------------7-----7-7---7-7-----|
Db|--4-----4--4-----4--4-----4-----4--4-----4--4------|--5---5-5---5-5---7-----7-7---7-7-----|
Ab|--2-----2--2-----2--2-----2-----2--2-----2--2------|--5---5-5---5-5---5-----5-5---5-5-----|
Eb|---------------------------------------------------|--3---3-3---3-3-----------------------|
  |                                                   |                                      |
  |  E     S  E     S  E     E     S  E     S  E      |  E   S E   S E   E     S E   S E     |
eb|---------------------------------------------------|--------------------------------------|
Bb|---------------------------------------------------|--------------------------------------|
Gb|--4-----4--4-----4--4-----4-----4--4-----4--4------|------------------7-----7-7---7-7-----|
Db|--4-----4--4-----4--4-----4-----4--4-----4--4------|--5---5-5---5-5---7-----7-7---7-7-----|
Ab|--2-----2--2-----2--2-----2-----2--2-----2--2------|--5---5-5---5-5---5-----5-5---5-5-----|
Eb|---------------------------------------------------|--3---3-3---3-3-----------------------|
  |                                                   |                                      |
  |  S  S  S  S  S  S  S  S  S  S  S  S  S  S  S      |  E.    E.    E   S  E    E.    E     |
eb|---------------------------------------------------|--14----------------------------------|
Bb|--15p12----12-15p12----12-15p12----12-15p12----12--|--------17----15--15h17---15----14----|
Gb|--------14----------14----------14----------14-----|--------------------------------------|
Db|---------------------------------------------------|--------------------------------------|
Ab|---------------------------------------------------|--------------------------------------|
Eb|---------------------------------------------------|--------------------------------------|


     E   E    E   E   E   E   E   E        E   E   E   E   E   E    E   E
eb|-------------------------------------|-------------------------------------|
Bb|--12-------12------12------12--------|--12------12------12-------12--------|
Gb|------14-------14------14------14----|------14------14------14-------14----|
Db|-------------------------------------|-------------------------------------|
Ab|-------------------------------------|-------------------------------------|
Eb|-------------------------------------|-------------------------------------|
  |                                     |                                     |
  |  E   S E    S E   E   S E   S E     |  E   S E   S E   E   S E    S E     |
eb|-------------------------------------|-------------------------------------|
Bb|-------------------------------------|-------------------------------------|
Gb|-------------------------------------|-------------------------------------|
Db|--7---7-7----7-7---7---7-7---7-7-----|--7---7-7---7-7---7---7-7----7-7-----|
Ab|--7---7-7----7-7---7---7-7---7-7-----|--7---7-7---7-7---7---7-7----7-7-----|
Eb|--5---5-5----5-5---5---5-5---5-5-----|--5---5-5---5-5---5---5-5----5-5-----|
  |                                     |                                     |
  |  E.    S  E   E   H                 | +H               E.    S  E         |
eb|-------------------------------------|-------------------------------------|
Bb|--14----15h17--15--12*---------------|------------------14===b15r14--------|
Gb|-------------------------------------|-------------------------------------|
Db|-------------------------------------|-------------------------------------|
Ab|-------------------------------------|-------------------------------------|
Eb|-------------------------------------|-------------------------------------|

   Gtr 1 & 2
     W                                    H               H                    -
eb|------------------------------------|------------------------------------|--------||
Bb|------------------------------------|------------------------------------|--------||
Gb|--4---------------------------------|------------------7-----------------|--------||
Db|--4---------------------------------|--5---------------7-----------------|--7-----||
Ab|--2---------------------------------|--5---------------5-----------------|--7-----||
Eb|------------------------------------|--3---------------------------------|--5-----||
  |                                    |                                    |        ||
  |Gtr 3                               |                                    |        ||
  |  -                                 |                                    |        ||
eb|------------------------------------|------------------------------------|--------||
Bb|--12~-------------------------------|------------------------------------|--------||
Gb|------------------------------------|------------------------------------|--------||
Db|------------------------------------|------------------------------------|--------||
Ab|------------------------------------|------------------------------------|--------||
Eb|------------------------------------|------------------------------------|--------||


************************************

|  ~   Vibrato
|  \   Slide down
|  x   Dead note
|  PM  Palm mute
|  h   Hammer-on
|  p   Pull-off
|  /   Slide up
|  b   Bend
|  r   Release bend
|  =   Extend note into next
| [n]  Natural harmonic
|  *   Pinch harmonic
|  S   Sixteenth note
|  E   Eighth note
|  Q   Quarter note
|  H   Half note
|  W   Whole note
|  .   Dotted note
| (N)  Rest
|  +   Add note value
|o o|  Reprise

************************************

            
            
Suggest correction
Creating personal tab
Creating personal tab
You can edit any tab online and save it as your Personal.

You can edit, replace or remove any tab part or add personal notes – all changes will be seen only by you.

Personal tabs can be accessed anytime from any device, even offline.
Learn more »
Give kudos to tab author, rate the tab!
1 2 3 4 5
comments
print report bad tab
guest
You may want to rate the tab now too:
select rating
Wanna post a correction for this tab? Suggest correction